Misc Television Tabs

Love Song - Fist Of The North Star

1 versions

TAB

            -------------------------------------------------------------------------------
	            	      Love Song - Fist of the North Star
-------------------------------------------------------------------------------
Tabbed by:Xaxu
Tuning:Standard


Originally tabbed by Sj.
Here is a video for the song = http://www.youtube.com/watch?v=1mIiS3fou_8


  
e|------0-----0-------0-----0-------0-----0-------0----|
B|--------3-----3-------3-----3-------3-----3-------3--|
G|----2-----2-------2-----2-------2-----2-------2------|
D|--0-------------0-------------0----------------------|
A|-----------------------------------------------------|
E|--------------------------------------------3--------|


e|-------------------------------------------|
B|------2-------3-------0-------3-----2------|
G|----2---2---4---4---0---0---2---2-----2----|
D|--0-------4-------2---------------2-----2--|
A|--------------------------0----------------|
E|-------------------------------------------|

  
e|-----------------------------------|
B|------3-------2-------3-----3------|
G|----4---4---2---2-------4-----4----|
D|--5-----------------4-----4-----4--|
A|----------0-------2----------------|
E|-----------------------------------|


e|-----------------------------------|
B|------3-----3---------3-----2------|
G|--------4-----4---------2-----2----|
D|----0-----5-----5---2-----------2--|
A|------------------0-------0--------|
E|--3--------------------------------|


e|------0-----0-------0----|
B|--------3-----3-------3--|
G|----2-----2-------2------|
D|--0----------------------|
A|-------------------------|
E|----------------3--------|


e|-------------------------------------------|
B|------2-------3-------0-------3-----2------|
G|----2---2---4---4---0---0---2---2-----2----|
D|--0-------4-------2---------------2-----2--|
A|--------------------------0----------------|
E|-------------------------------------------|

  
e|-----------------------------------|
B|------3-------2-------3-----3------|
G|----4---4---2---2-------4-----4----|
D|--5-----------------4-----4-----4--|
A|----------0-------2----------------|
E|-----------------------------------|


e|------------0---------0-----0----|
B|------3-------2---------3-----3--|
G|--------4-------2---------2------|
D|----0-----5---------2------------|
A|------------------0--------------|
E|--3------------------------------|


e|------0-----0---------------------------------------3------------|
B|--------3-----3-----3-----2---------1-----1-----------3-----2----|
G|----2-----2-----------2-----2-----0---0-----0-----0-----------2--|
D|--0---------------2-----2-----2---------2-----2-----------2------|
A|----------------0---------------3-----------------------0--------|
E|------------------------------------------------3----------------|


e|------0-----0---------------------------------------3------------|
B|--------3-----3-----3-----2---------1-----1-----------3-----2----|
G|----2-----2-----------2-----2-----0---0-----0-----0-----------2--|
D|--0---------------2-----2-----2---------2-----2-----------2------|
A|----------------0---------------3-----------------------0--------|
E|------------------------------------------------3----------------|


e|------0-----0----0--|
B|--------3-----3--3--|
G|----2-----2------2--|
D|--0--------------0--|
A|--------------------|
E|--------------------|


Lyrics

Yoru no tobari no naka Mada nemurenai
Kokoro wo yogiru Kimi e no omoi
Konna fû ni daremo Dareka no koto de
Mune wo kogashite Nemuri ni tsuku no ka

Tatoeba Kono machi Kono kuni
Tobikaitsuzukeru? Ikuman no ai
I don't like love 'Cause I love you
Omoeba sugoi enerugii
I don't like love 'Cause I love you
Bakageteru keredo Kôfun suru

Chiisana kono machi de Me wo sorashiau
Kazoekirenai Takusan no hito
Moshi koe kaketa nara Kotaete kureru
Honto wa yasashii Dareka no koibito

Tatoeba Kono kuni Kono hoshi
Munashiku arasou Ikuoku no ai
I don't like love 'Cause I love you
Omoeba muda na enerugii
I don't like love 'Cause I love you
Hitori de iru no wo Setsunaku suru

I don't like love 'Cause I love you
Daremo suki ni naritaku nai
I don't like love 'Cause I love you
Konna Hitori de iru no wo Setsunaku suru



| /  slide up
| \  slide down
| h  hammer-on
| p  pull-off
| ~  vibrato
| +  harmonic
| x  Mute note
===============================================================================    

Added On December 16th, 2013

SHARE

Comments

blog comments powered by Disqus

ADVERTISEMENT