Misc Television Tabs

Mash Theme

1 versions

TAB

            The theme for M*A*S*H, which is an instrumental piece of Johnny Mandel's 1970 release 
"Suicide is Painless".

e--3-|-1--0-1---0-1--0---|-------0-----0------0-------|--0-|-------------------|
b----------------------3-|---------3------3-----3---1-|----|-3---1--3--1---3---|
g------------------------------------------------------------------------------|
d------------------------------------------------------------------------------|
a------------------------------------------------------------------------------|
e------------------------------------------------------------------------------|

e-------------------------------------0--|
b---1---0-|----3-|-1--0--1--0--1--3------|
g----------------------------------------|
d----------------------------------------|
a----------------------------------------|
e----------------------------------------|    

Added On May 2nd, 2017

SHARE

Comments

blog comments powered by Disqus

ADVERTISEMENT