Misc Television Tabs

Ncis Los Angeles Theme

1 versions

TAB

            -------------------------------------------------------------------------------
                             NCIS: Los Angeles Theme Tune
-------------------------------------------------------------------------------
Tabbed by: Tuckotabs
E-mail: ben.tuckley@gmail.com

Tuning: Normal

e|---------------------------------------------------------------------------|
B|--10-------10-------10-------8-----8-----8------8-----8-----8--------------|
G|-----10-10----10-10----10------9-9---9-9---9------9-9---9-9---9------------|
D|---------------------------------------------------------------------------|
A|---------------------------------------------------------------------------|
E|---------------------------------------------------------------------------|

e|---------------------------------------------------------------------------|
B|--6-----6-----6-8----10-------10-------10-------11-------10----------------|
G|----7-7---7-7-----------10-10----10-10----10-------10-10----10-10-10-10----|
D|---------------------------------------------------------------------------|
A|---------------------------------------------------------------------------|
E|---------------------------------------------------------------------------|

e|---------------------------------------------------------------------------|
B|--8-----8-----8------8-----------------------------------------------------|
G|----9-9---9-9---9------9-9--10--9--7---------------------------------------|
D|----------------------------------------8\7----10\7------------------------|
A|---------------------------------------------------------------------------|
E|---------------------------------------------------------------------------|

e|---------------------------------------------------------------------------|
B|--10-------10-------10-------8-----8-----8------8-----8-----8--------------|
G|-----10-10----10-10----10------9-9---9-9---9------9-9---9-9---9------------|
D|---------------------------------------------------------------------------|
A|---------------------------------------------------------------------------|
E|---------------------------------------------------------------------------|

e|---------------------------------------------------------------------------|
B|--6-----6-----6-8----10-------10-------10-------11-------10----------------|
G|----7-7---7-7-----------10-10----10-10----10-------10-10----10-10-10-10----|
D|---------------------------------------------------------------------------|
A|---------------------------------------------------------------------------|
E|---------------------------------------------------------------------------|

e|---------------------------------------------------------------------------|
B|--8-----8-----8------8-----------------------------------------------------|
G|----9-9---9-9---9------9-9--10--9--7---------------------------------------|
D|----------------------------------------8\7----10\7------------------------|
A|---------------------------------------------------------------------------|
E|---------------------------------------------------------------------------|

************************************

| /   slide up
| \   slide down
| h   hammer-on
| p   pull-off
| ~   vibrato
| +   harmonic
| x   Mute note
| b   Bend
| pb  Pre-bend
| br  Bend release
| pbr Pre-bend release
| brb Bend release bend

************************************    

Added On May 15th, 2014

SHARE

Comments

blog comments powered by Disqus

ADVERTISEMENT