Misc Television Tabs

Nhl On Versus Theme Intro

1 versions

TAB

            These are the intro chords for the NHL on versus theme

E|-------------------------|
B|-------------------------|
G|-2-2-2-------7-7-7-9-9-9-|
D|-2-2-2-3-3-3-7-7-7-9-9-9-|
A|-0-0-0-3-3-3-5-5-5-7-7-7-|
E|-------1-1-1-------------|

E|-------------------------|
B|-------------------------|
G|-2-2-2-------7-7-7-9-9-9-|
D|-2-2-2-3-3-3-7-7-7-9-9-9-|
A|-0-0-0-3-3-3-5-5-5-7-7-7-|
E|-------1-1-1-------------|


Thats all I could figure out because the rest of the song is a crazy solo.    

Added On December 16th, 2013

SHARE

Comments

blog comments powered by Disqus

ADVERTISEMENT