Misc Television Tabs

Stargate Sg-1 Theme

1 versions

TAB

            Song: Stargate SG-1 Theme
Standard Tuning: EADGBe

e|-------------------------------------------------------------
B|-------------------------------------------------------------
G|---------3--2------------------------------------------------
D|-0--5-----------5p4-5p4----6\5-5-5-5-5-5--5-5-5-5-5-6--6--6--
A|---------------------------4\3-3-3-3-3-3--3-3-3-3-3-4--4--4--
E|-------------------------------------------------------------

	----------------------------------------------------|
	----------------------------------------------------|
	----------------------------------------------------|
	-6\5-5-5-5-5-5----2---2---3---3h5---2---2---3---3h5-|
	-4\3-3-3-3-3-3--0---2---3---5-----0---2---3---5-----|
	----------------------------------------------------|

e|-----------------------------------------------------------------------|
B|-3/12----10h12-13-10-12----12h13-10-12--12h13-10-12-15-13-12p10-12-----|
G|-----------------------------------------------------------------------|
D|-----------------------------------------------------------------------|
A|-----------------------------------------------------------------------|
E|-----------------------------------------------------------------------|

e|--------------------------------------------------------------------|
B|-10-8-4--------------------------------------------------------9-13-|
G|--------4/9----7h9-10-7-9----9h10-7-9--9h10-7-9-12-10-9p7-9-12------|
D|--------------------------------------------------------------------|
A|--------------------------------------------------------------------|
E|--------------------------------------------------------------------|

e|---------------------------------------|
B|-14-13---9h11-12----14-13---9h11-12----|
G|---------------------------------------|
D|---------------------------------------|
A|---------------------------------------|
E|---------------------------------------|

e|------------------------------------------|
B|------------------------------------------|
G|-----5-------5---5--5--5--5--5--5-555555--|
D|-2---3---2---3---3--3--3--3--3--3-3333332-|
A|-0-------0------------------------------0-|
E|------------------------------------------|

END    

Added On December 16th, 2013

SHARE

Comments

blog comments powered by Disqus

ADVERTISEMENT