Misc Television Tabs

Wwe - Celtic Invasion Becky Lynch

1 versions

TAB

            Drop D (DADGBE)

E|------------------------------------------------|
B|------------------------------------------------|
G|-7-------9----------7---------------------------|
D|-7---7---9---11-9---7---7---/11"-/12"-/14"-/14"-|
A|-5---7---7---11-9---5---7-----------------------|
D|-----7-------11-9-------7-----------------------|

E|---------------------------------------------------|
B|---------------------------------------------------|
G|----------------14"------14-16"--18-16-14----------|
D|-/16"--16-14-16------/16-------------------16"--14-|
A|---------------------------------------------------|
D|---------------------------------------------------|

E|---------------------------------------------------|
B|---------------------------------------------------|
G|----------------14"------14-16"---/18-14-16-18"----|
D|-16"--16-14-16------/16----------------------------|
A|---------------------------------------------------|
D|---------------------------------------------------|

E|--------------------------------------------------------------------------------|
B|--------------------------------------------------------------------------------|
G|--------------------------------------------------------------------------------|
D|--------------------------------------------------------------------------------|
A|-9-9-9-9-9-9-9-9-9-7-7-7-7-7-7-7-7-/11-11-11-11-11-11-11-11-12-12-11-11-9-9-7-7-|
D|--------------------------------------------------------------------------------|

E|-----------------------------------------------------|
B|-----------------------------------------------------|
G|-----------------------------------------------------|
D|---------------------------------/11"-/12"-/14"-/14"-|
A|-9-9-9-9-9-9-9-9-7-7-7-7-7-7-7-7---------------------|
D|-----------------------------------------------------|

E|------------------------------|
B|------------------------------|
G|------------------------------|
D|------------------------------|
A|------------/5"---2---0-2-4---|
D|-2-4--4-2-4-------------------|

E|--------------------------------------------------------------------------------|
B|--------------------------------------------------------------------------------|
G|--------------------------------------------------------------------------------|
D|--------------------------------------------------------------------------------|
A|-9-9-9-9-9-9-9-9-9-7-7-7-7-7-7-7-7-/11-11-11-11-11-11-11-11-12-12-11-11-9-9-7-7-|
D|--------------------------------------------------------------------------------|

E|-----------------------------------------------------|
B|-----------------------------------------------------|
G|-----------------------------------------------------|
D|---------------------------------/11"-/12"-/14"-/14"-|
A|-9-9-9-9-9-9-9-9-7-7-7-7-7-7-7-7---------------------|
D|-----------------------------------------------------|

E|---------------------------------------------------|
B|---------------------------------------------------|
G|----------------14"------14-16"--18-16-14----------|
D|-/16"--16-14-16------/16-------------------16"--14-|
A|---------------------------------------------------|
D|---------------------------------------------------|

E|---------------------------------------------------|
B|---------------------------------------------------|
G|----------------14"------14-16"---/18-14-16-18"----|
D|-16"--16-14-16------/16----------------------------|
A|---------------------------------------------------|
D|---------------------------------------------------|

E|------------------------------------------------|
B|------------------------------------------------|
G|-7-------9----------7---------------------------|
D|-7---7---9---11-9---7---7---/11"-/12"-/14"-/14"-|
A|-5---7---7---11-9---5---7-----------------------|
D|-----7-------11-9-------7-----------------------|

E|---------------------------------------------------|
B|---------------------------------------------------|
G|----------------14"------14-16"--18-16-14----------|
D|-/16"--16-14-16------/16-------------------16"--14-|
A|---------------------------------------------------|
D|---------------------------------------------------|

E|---------------------------------------------------|
B|---------------------------------------------------|
G|----------------14"------14-16"---/18-14-16-18"----|
D|-16"--16-14-16------/16----------------------------|
A|---------------------------------------------------|
D|---------------------------------------------------|

E|--------------------------------------------------------------------------------|
B|--------------------------------------------------------------------------------|
G|--------------------------------------------------------------------------------|
D|--------------------------------------------------------------------------------|
A|-9-9-9-9-9-9-9-9-9-7-7-7-7-7-7-7-7-/11-11-11-11-11-11-11-11-12-12-11-11-9-9-7-7-|
D|--------------------------------------------------------------------------------|

E|-----------------------------------------------------|
B|-----------------------------------------------------|
G|-----------------------------------------------------|
D|---------------------------------/11"-/12"-/14"-/14"-|
A|-9-9-9-9-9-9-9-9-7-7-7-7-7-7-7-7---------------------|
D|-----------------------------------------------------|

E|------------------------------|
B|------------------------------|
G|------------------------------|
D|------------------------------|
A|------------/5"---2---0-2-4---|
D|-2-4--4-2-4-------------------| 

E|--------------------------------------------------------------------------------|
B|--------------------------------------------------------------------------------|
G|--------------------------------------------------------------------------------|
D|--------------------------------------------------------------------------------|
A|-9-9-9-9-9-9-9-9-9-7-7-7-7-7-7-7-7-/11-11-11-11-11-11-11-11-12-12-11-11-9-9-7-7-|
D|--------------------------------------------------------------------------------|

E|-----------------------------------------------------|
B|-----------------------------------------------------|
G|-----------------------------------------------------|
D|---------------------------------/11"-/12"-/14"-/14"-|
A|-9-9-9-9-9-9-9-9-7-7-7-7-7-7-7-7---------------------|
D|-----------------------------------------------------|

E|---------------------------------------------------|
B|---------------------------------------------------|
G|----------------14"------14-16"--18-16-14----------|
D|-/16"--16-14-16------/16-------------------16"--14-|
A|---------------------------------------------------|
D|---------------------------------------------------|

E|-----------------------------------------------------|
B|-----------------------------------------------------|
G|----------------14"------14-16"---/18-14-16-18"------|
D|-16"--16-14-16------/16----------------------------4-|
A|---------------------------------------------------4-|
D|---------------------------------------------------4-|



************************************

/= SLIDE
"= VIBRATO

************************************    

Added On December 12th, 2016

SHARE

Comments

blog comments powered by Disqus

ADVERTISEMENT