Modest Mouse Tabs

Spitting Venom

2 versions

TAB

            Spitting Venom Tab by Modest Mouse


Title: Spitting Venom (track 12)
Artist: Modest Mouse
Album: We Were Dead Before the Ship Even Sank

tabbed by Steve "SPiV" Perreira IV


Guitar I - Isaac Brock
Guitar II - Johnny Marr


--

Guitar I - Isaac Brock


[part 1]


(variation 1)
e-------------------|-------------------|-------------------|-------------------|
B-------------------|-------------------|-------------------|-------------------|
G-------------------|----5---5---5---5--|-------------------|-------------------|
D----7---7---7---7--|----5---5---5---5--|----5---5---5---5--|----3---3---3---3--|
A----7---7---7---7--|--3---3---3---3----|----5---5---5---5--|----3---3---3---3--|
E--5---5---5---5----|-------------------|--3---3---3---3----|--1---1---1---1----|

(variation 2, w/fill)
e-------------------|-------------------|-------------------|-------------------|
B-------------------|-------------------|-------------------|-------------------|
G-------------------|----5---5---5---5--|-------------------|-------------------|
D----7---7---7---7--|----5---5---5---5--|----5---5---5---5--|----3---3----------|
A----7---7---7---7--|--3---3---3---3----|----5---5---5---5--|----3---3----------|
E--5---5---5---5----|-------------------|--3---3---3---3----|--1---1---1-0-1-3--|


[part 2]


main riff
e--------------------------|------------------------------------|
B--------------------------|------------------------------------|
G---------9-9-9-9--7b-7b-5-|--5--5---12-12-12-12--10--9/10-9/10-|
D--7--7--------------------|--5--5------------------------------|
A--7--7---7-7-7-7--5b-5b-3-|--3--3---10-10-10-10--8---7/9--7/9--|
E--5--5--------------------|------------------------------------|

e----------------------------------|--------------------------|
B----------------------------------|--------------------------|
G----------------------------------|--------------------------|
D--5--5---12-12-12-12--10--9/11-9--|--3--3--5--5--7--7--9--9--|
A--5--5----------------------------|--3--3--5--5--7--7--9--9--|
E--3--3---10-10-10-10--8---7/9--7--|--1--1--3--3--5--5--7--7--|


build-up 1
e--------------------------|------------------------------|
B--------------------------|------------------------------|
G--------------------------|------------------------------|
D--3--3--5--5--7--7--9--9--|--7--7--9--9--10--10--12--12--|
A--3--3--5--5--7--7--9--9--|--7--7--9--9--10--10--12--12--|
E--1--1--3--3--5--5--7--7--|--5--5--7--7--8---8---10--10--|

e----------------------------|--------------------------------|
B----------------------------|--------------------------------|
G--5--5--7--7--9--9--10--10--|--9--9--10--10--12--12--14--14--|
D--5--5--7--7--9--9--10--10--|--9--9--10--10--12--12--14--14--|
A--3--3--5--5--7--7--8---8---|--7--7--8---8---10--10--12--12--|
E----------------------------|--------------------------------|

e----------------------------------|
B----------------------------------|
G--12--12--14--14--16--16--17--17--|
D--12--12--14--14--16--16--17--17--|
A--10--10--12--12--14--14--15--15--|
E----------------------------------|


build-up 2
e--------------------------|------------------------------|
B--------------------------|------------------------------|
G--------------------------|------------------------------|
D--3--3--5--5--7--7--9--9--|--7--7--9--9--10--10--12--12--|
A--3--3--5--5--7--7--9--9--|--7--7--9--9--10--10--12--12--|
E--1--1--3--3--5--5--7--7--|--5--5--7--7--8---8---10--10--|

e----------------------------|--------------------------------|
B----------------------------|--------------------------------|
G--5--5--7--7--9--9--10--10--|--9--9--10--10--12--12--14--14--|
D--5--5--7--7--9--9--10--10--|--9--9--10--10--12--12--14--14--|
A--3--3--5--5--7--7--8---8---|--7--7--8---8---10--10--12--12--|
E----------------------------|--------------------------------|

e----------------------------------|----------------------------------|
B----------------------------------|----------------------------------|
G--12--12--14--14--16--16--17--17--|--16--16--17--17--19--19--21--21--|
D--12--12--14--14--16--16--17--17--|--16--16--17--17--19--19--21--21--|
A--10--10--12--12--14--14--15--15--|--14--14--15--15--17--17--19--19--|
E----------------------------------|----------------------------------|


pre-part 3/part 3/outro
e--------------------------------------|
B--------------------------------------|
G-----------5~~~~----------------------|
D--7~~~~----5~~~~----5~~~~----3~~~~----|
A--7~~~~----3~~~~----5~~~~----3~~~~----|
E--5~~~~-------------3~~~~----1~~~~----|
slow bends down with whammy-bar/floyd rose


--

Guitar II - Johnny Marr


[part 1]


fills
e--------0----------------0----------|--------0----------|
B--13/15----13------13/15----13------|--13/15----13------|
G--14/16----14------14/16----14------|--14/16----14------|
D------------------------------------|-------------------|
A------------------------------------|-------------------|
E------------------------------------|-------------------|


[part 2]


main riff
e-----------------------------|---------3-3-3-3--1--0-1-0-1-|
B---------5-5-5-5--3--1-3-1-3-|-----------------------------|
G-----------------------------|--5--5-----------------------|
D--7--7-----------------------|-----------------------------|
A-----------------------------|--3--3-----------------------|
E--5--5-----------------------|-----------------------------|

e-----------------------------|--------------------------|
B-----------------------------|--------------------------|
G---------7-7-7-7--5--4-5-4-5-|--------------------------|
D--5--5-----------------------|--3--3--5--5--7--7--9--9--|
A-----------------------------|--------------------------|
E--3--3-----------------------|--1--1--3--3--5--5--7--7--|


pre-part 3
e-------------------------|-----------------------|-------------------------|
B--15--13--13-15-13-15-13-|15--13--13-15-13-15-13-|--13--12--12-13-12-13-12-|
G-------------------------|-----------------------|-------------------------|
D-------------------------|-----------------------|-------------------------|
A-------------------------|-----------------------|-------------------------|
E-------------------------|-----------------------|-------------------------|

e-------------------------|-------------------------|-----------------------|
B--12---------------------|--15--13--13-15-13-15-13-|15--13--13-15-13-15-13-|
G------14--14-14-14-14-12-|-------------------------|-----------------------|
D-------------------------|-------------------------|-----------------------|
A-------------------------|-------------------------|-----------------------|
E-------------------------|-------------------------|-----------------------|

e-------------------------|----------------------|
B--13--12--12-13-12-13-12-|--12------------------|
G-------------------------|------14--14-14-14-14-|
D-------------------------|----------------------|
A-------------------------|----------------------|
E-------------------------|----------------------|


e--------0----------------0----------|--------0----------|
B--13/15----13------13/15----13------|--13/15----13------|
G--14/16----14------14/16----14------|--14/16----14------|
D------------------------------------|-------------------|
A------------------------------------|-------------------|
-------------------|


[part 3]


e--------------------------|
B--------------------------|
G--12-------14-12----------|
D-----12----------12-------|
A--------15----------15-14-|
E--------------------------|


--

tabbed by Steve "SPiV" Perreira IV    

Added On December 16th, 2013

SHARE

Comments

blog comments powered by Disqus

VERSIONS

ADVERTISEMENT