TAB

            -------------------------------------------------------------------------------
			     INSIDE - Monkey Majik
-------------------------------------------------------------------------------
Tabbed by: guetaminute
Email: guetaminute@hotmail.com

Tuning: Standard
Album: eastview

Main riff/intro/verse
e|---------8---8----------6----6----------------------------------------------------|
B|---------8---9----------6----8----------------------------------------------------|
G|--------(8)--8----------7----7----------------------------------------------------|
D|---8---------10------8-------8----------------------------------------------------|
A|---10--------8-------8-------6----------------------------------------------------|
E|---8-----------------6------------------------------------------------------------|
Try palm-muting the strings with your fret hand and striking the strings to give it a 
nice jazzy/funky effect after each chords.

With delay (possibly low harmonics as well, can't really tell)
e|----------------------------------------------------------------------------|
B|----------------------------------------------------------------------------|
G|------------------------------/5--3--1--------------------------------------|
D|-----1--3---5--3--1----1---3------------------3----/6-5---3----1-1-1-0-0-0--|
A|---3-----------------3------------------1---5-------------------------------|
E|----------------------------------------------------------------------------|
Try softly palm-muting the strings with your strumming hand to give the notes another 
effect like in the song.

Second version ends with
e|---------------------------------------------------------------------------|
B|---------------------------------------------------------------------------|
G|---------------------------------------------------------------------------|
D|--1---0----5\--------------------------------------------------------------|
A|---------------------------------------------------------------------------|
E|---------------------------------------------------------------------------|

Chorus lead
e|----8-------10----8----6--------8------10-----8---|
B|----8-------11----9----8--------8------11-----9---|
G|----8-------10----8----8--------8------10-----8---|
D|----8-------12----10---8--------8------12-----10--|
A|----10------10----8----6--------10-----10-----8---|
E|----8---------------------------8-----------------|

Chorus rhythm:
e|---------------------------------------------------------------------------------------|
B|---------------------------------------------------------------------------------------|
G|---------------------------------------------------------------------------------------|
D|---1-1--3--5---0-0--1--3--------0-1----------------------------------------------------|
A|---------------------------3--3--------1-1-1-1-1-1-------------------------------------|
E|---------------------------------------------------------------------------------------|

End:
e|---------------------------------------------------------|
B|---------------------------------------------------------|
G|---------------------------------------------------------|
D|---------------1-1-1--0-0-0----------------1-1-1--0-0-0--|
A|---3-3-3-3-3-3----------------3-3-3-3-3-3----------------|
E|---------------------------------------------------------|




************************************

| /   slide up
| \   slide down
| h   hammer-on
| p   pull-off
| ~   vibrato
| +   harmonic
| x   Mute note
| b   Bend
| pb  Pre-bend
| br  Bend release
| pbr Pre-bend release
| brb Bend release bend

************************************    

Added On December 16th, 2013

SHARE

Comments

blog comments powered by Disqus

ADVERTISEMENT