Monkey Majik Tabs

Thank You

1 versions

TAB

            -------------------------------------------------------------------------------
			     THANK YOU - Monkey Majik
-------------------------------------------------------------------------------
Tabbed by: GuetaMinute
Email: guetaminute@hotmail.com

Tuning: Standard

Lead intro/main riff:
e|--------------------------------------------------|
B|--------------------------------------------------|
G|-5h7p5h7-x-5h7p5h7-x-7--5h7p5h7-x-5h7p5h7-x-/10-9-|
D|--------------------------------------------------|
A|--------------------------------------------------|
E|--------------------------------------------------|

Verse (rhythm)
e|--5-5--5--5-x--5-5---3--3-----5-----------------------------|
B|--5h6--5--5-x--5-5---3--3-----5-----------------------------|
G|--5-5--5--5-x--5-5---3--3-----5-----------------------------|
D|--7-7--5--5-x--5-5---3--3-----5-----------------------------|
A|--5-5--7--7-x--7-7---5--5-----7-----------------------------|
E|-------5--5-x--5-5---3--3--x--5-----------------------------|

Pre-chorus (rhythm)
e|--5-5---5--5-5----------------------------------|
B|--5h6---6--6-6---5-5--5--5--3--3--3-3-----------|
G|--5-5---5--5-5---5-5--5--5--3--3--3-3-----------|
D|--7-7---7--7-7---5-5--5--5--3--3--3-3-----------|
A|--5-5---5--5-5---3-3--3--3--1--1--1-1-----------|
E|------------------------------------------------|

Pre-chorus (Lead)
e|------------------------------------------------|
B|------------------------------------------------|
G|-7-7-7--5-5-5--3-3-3--2-2--0-0------------------|
D|--------------------------------3-3--5--7\------|
A|------------------------------------------------|
E|------------------------------------------------|
It can change to 8, live version is 7 but album is 8, I believe

Chorus (Lead/rhythm)
e|-1------------5--5--5----------------------------------------|
B|-1--3-3-3-----6--6--6----5--5--5--5--------------------------|
G|-2--3-3-3-----7--7--7----5--5--5--5--------------------------|
D|-3--3-3-3-----7--7--7----5--5--5--5--------------------------|
A|-3--1-1-1-----5--5--5----3--3--3--3--------------------------|
E|-1-----------------------------------------------------------|

Whole song.
************************************

| /   slide up
| \   slide down
| h   hammer-on
| p   pull-off
| ~   vibrato
| +   harmonic
| x   Mute note
| b   Bend
| pb  Pre-bend
| br  Bend release
| pbr Pre-bend release
| brb Bend release bend

************************************    

Added On December 16th, 2013

SHARE

Comments

blog comments powered by Disqus

ADVERTISEMENT