Motley Crue Tabs

Saints Of Los Angeles

5 versions

TAB

            ----------------------------------------------------------------------------
                              Saints of Los Angeles
                                      -
                                  Motley Crue
----------------------------------------------------------------------------
Tabbed by: MattMac

THIS TAB IS IN DROP D (DADGBE). Yes, I know, Mick drops down 1 whole step. But it 
matter. It is easier to play this way, trust me.

Yeah, no solo. This one is still, by far, better than the other on here. It's right, I'm 
of it. Just listen to the song. I'm pretty sure he's using wah through out most of it.


Tuning: Drop - D
Intro:
                                                     Last Time:
e|--------------------------------------------------|---------|
B|--------------------------------------------------|---------|
G|--------------------------------------------------|---------|
D|----5-3-5-3--5-3-5-3-5-3-5---5-3-5-3--5---5-3-5-6-|--3------|
A|----5-3-5-3--5-3-5-3-5-3-5---5-3-5-3--5---5-3-5-6-|--3------|
D|--5-------------------------5-----------5---------|--3------|


Verse:

e|-----------------------------------------------------------|
B|-----------------------------------------------------------|
G|-----------------------------------------------------------|
D|-----5---5--5----5----66------8---8-------3---3-4-5-6------|
A|-----5---5--5----5----66------8---8-------3---3-4-5-6------|
D|-5555-555-55-5555-555-66--8888-888-88-3333-33-3-4-5-6------|


Bridge: (Figure out the strumming pattern for the open part, I can't explain it here)
           End With:
e|-----|------------------------------------------------------|
B|-----|------------------------------------------------------|
G|-----|------------------------------------------------------|
D|-0---|---0-1-2-3-4------------------------------------------|
A|-0---|---0-1-2-3-4------------------------------------------|
D|-0---|---0-1-2-3-4------------------------------------------|

Chorus: (Again, figure out the strumming pattern, these are just the chords)

e|-----------------------------------------------------------|
B|-----------------------------------------------------------|
G|-------5-----------5-----------5---------------------------|
D|-5--1--5--3--5--1--5--3--5--1--5--3--1--3------------------|
A|-5--1--3--3--5--1--3--3--5--1--3--3--1--3------------------|
D|-5--1-----3--5--1-----3--5--1-----3--1--3------------------|

End On:
e|-----------------------------------------------------------|
B|-----------------------------------------------------------|
G|-----------------------------------------------------------|
D|--5--------------------------------------------------------|
A|--5--------------------------------------------------------|
D|--5--------------------------------------------------------|


============================================================================    

Added On December 16th, 2013

SHARE

Comments

blog comments powered by Disqus