Mudhoney Tabs

Suck You Dry

2 versions

TAB

            Suck You Dry Tab by Mudhoney


(4/4 Time) (Tuning [Low to High] Db Ab Db Gb Bb Eb)
Intro/Verse:
 AbF#AbF#Ab   F# AbF#AbF#Ab  F# AbF#AbF#Ab   Eb DbB
-------------------------------------------------------------|
-------------------------------------------------------------|
----------------------------------------------9-7-5----------|
-7-5-7-5-7-7---5-7-5-7-5-7-7--5-7-5-7-5-7-7---9-7-5----------|
-7-5-7-5-7-7---5-7-5-7-5-7-7--5-7-5-7-5-7-7---7-5-3----------|
-7-5-7-5-7-7---5-7-5-7-5-7-7--5-7-5-7-5-7-7------------------|
(Guitar 1)
-------------------------------------------------------------|
-------------------------------------------------------------|
----------------------------------------------9-7-5----------|
---------7-7-------------7-7------------7-7---9-7-5----------|
---------7-7-------------7-7------------7-7---7-5-3----------|
---------7-7-------------7-7------------7-7------------------|
(Guitar 2)


Chorus:
 Ab      B       Db
-------------------------%---*-------------------------------|
-------------------------6---6------6---8(10)8-6-------------|
---------5-5-5-5-7-7-7-7---7---7------7----------7-----------|
-7-7-7-7-5-5-5-5-7-7-7-7-------------------------------------|
-7-7-7-7-3-3-3-3-5-5-5-5-------------------------------------|
-7-7-7-7-----------------------------------------------------|
(Guitar 1) (*=Slight Bend) (Guitar 1 Plays Above For 1st and
3rd Time Through Chorus; Fill 1 for 2nd Time Through 1st
Chorus; Fill 2 For 2nd Time Through 2nd Chorus; Fill Three for
4th Time Through 1st and 2nd ChorusÍ [Guitar is Tacet in Place
of Fill on 4th Time Through 3rd Chorus]; All Fills Start at %)
-------------------------------------------------------------|
-------------------------$-----------------------------------|
---------5-5-5-5-7-7-7-7-7-7-7-7-----------------------------|
-7-7-7-7-5-5-5-5-7-7-7-7-7-7-7-7-----------------------------|
-7-7-7-7-3-3-3-3-5-5-5-5-5-5-5-5-----------------------------|
-7-7-7-7-----------------------------------------------------|
(Guitar 2) (Guitar 2 Stops at $ Last Time Through Each Chorus)


Fill 1:                Fill 2:
 Db                     Db
----------------------------5--------------------------------|
-6---8(10)8-------------6------------------------------------|
---7--------7-------------7---7------------------------------|
-------------------------------------------------------------|
-------------------------------------------------------------|
-------------------------------------------------------------|
(Guitar 1)             (Guitar 1)


Fill 3:                Fill 4:
 Db                     Db
-------------------------------------------------------------|
-6---6(8)6---------------------------------------------------|
---7-------7------------7------------------------------------|
-------------------------------------------------------------|
-------------------------------------------------------------|
-------------------------------------------------------------|
(Guitar 1)             (Guitar 1)


Solo:
-------------------------------------5-8-5--/8-10-12--10-10--|
---------------5-8-5-5------8-----5--------------------------|
---------7--------------7-7---7-7----------------------------|
-5-5-5-5---5-------------------------------------------------|
-------------------------------------------------------------|
-------------------------------------------------------------|
(Guitar 1) (Guitar 2 Plays Same as Guitar 1 Does During
Intro/Verse Twice)

-10-12-10---/15----17-17-17-15-------------------------------|
----------------17-------------17---17-17--------------------|
-------------------------------------------------------------|
------------------------------------------14-17(19)17\-------|
-------------------------------------------------------------|
-------------------------------------------------------------|
(Guitar 1)


Ending:
 Ab
-------------------------------------------------------------|
-------------------------------------------------------------|
-------------------------------------------------------------|
-7-----------------------------------------------------------|
-7-----------------------------------------------------------|
-7-----------------------------------------------------------|
(Guitars 1 and 2)    

Added On December 16th, 2013

SHARE

Comments

blog comments powered by Disqus

VERSIONS

ADVERTISEMENT