Murderdolls Tabs

I Take Drugs

4 versions

TAB

            I Take Drugs Tab by Murderdolls


Intro/Chorus
(kick things off with a pickslide)
E-----------------------------------------------------|
B-----------------------------------------------------|
G-----------------------------------------------------|  (play 2x)
D-/4-4-4-4-4--7-7-7-7-7--9-9-9-9-9--12-12-12-12-12----|
A-/2-2-2-2-2--5-5-5-5-5--7-7-7-7-7--10-10-10-10-10----|
E-----------------------------------------------------|


Verses 1 and 2

E---------------------------------------------------|
B---------------------------------------------------|
G---------------------------------------------------|   (play 2x)
D-4-4-4-4-4--7-7-7-7-7-7----------------------------|
A-2-2-2-2-2--5-5-5-5-5-5--2-2-2-2-2--5-5-5-5-5-5----|
E-------------------------0-0-0-0-0--3-3-3-3-3-3----|

chorus 2x

verse 2 2x

chorus 4x

bridge

E-------------------------------------------|
B-------------------------------------------|
G-------------------------------------------|
D-4-4-------4-4------4-4------4-4-4-4-4-----|
A-2-2--3-2--2-2-3-2--2-2-3-2--2-2-2-2-2-----|
E------1-0------1-0------1-0----------------|

chorus 4x

ending

E----------------------------------------------------------|
B----------------------------------------------------------|
G----------------------------------------------------------|
D-4-4-4-4-4--7-7-7-7-7--9-9-9-9-9--12-12-12-12-12---4~-----|
A-2-2-2-2-2--5-5-5-5-5--7-7-7-7-7--10-10-10-10-10---2~-----|
E----------------------------------------------------------|    

Added On December 5th, 2013

SHARE

Comments

blog comments powered by Disqus

VERSIONS

ADVERTISEMENT