Nelly Tabs

Fly Away

1 versions

TAB

            Artist: Nelly
Song: Fly Away

Note: “h” means “hammer”.


   E-------------------------/
   A-0-----------------------/
   D----------0--------------/
   G-------------------------/
   B--1-1------1-1-----------/
   e---1-0h1----1-0h1--------/

   E-------------------------/
   A-0-----------------------/
   D----------0--------------/
   G-------------------------/
   B--1-1------1-1-----------/
   e---1-0h1----1-3-1--------/    

Added On December 16th, 2013

SHARE

Comments

blog comments powered by Disqus

ADVERTISEMENT