NERD Tabs

Rockstar

1 versions

TAB

            Rockstar by NERD
from Fly Or Die

e-----------------------|
B-----------------------|
G-12--11--11--11-11-11--|
D-----------------------|
A-----------------------|
E-----------------------|

VERSE - this is the vocals but played on guitar
e-12-----------------------------|
B----12-13p12-10/12-12-12--------|
G-------------------------14-13--|
D--------------------------------|
A--------------------------------|
E--------------------------------|

That's about it
Any corrections please comment
Thanks    

Added On December 16th, 2013

SHARE

Comments

blog comments powered by Disqus

ADVERTISEMENT