New Found Glory Tabs

All About Her

3 versions

TAB

            All About Her Tab by New Found Glory


New found glory - All about her
Album -New found glory

Tabbed by M.Santry

This is an ace song, im gunna tab more NFG as there is only hit and miss on
here. This is my first ever tab and is all my own work.

Email me with corrections at peanut_butter_wolf_uk@hotmail.com

Heres the intro(X2)

e---------------------------------------------------------|
B---------------------------------------------------------|
G---------------------------------------------------------|
D-9-9-9-----9-9-9-----11-11-11----7-7-7-7-----9-----------|
A-7-7-7-----9-9-9-----11-11-11----7-7-7-7-----9-----------|
E-7-7-7-----7-7-7-----9--9--9-----5-5-5-5-----7-----------|


Verse
e--------------------------|
B--------------------------|
G--------------------------|
D--9-9------9-9------9-9---|
A--7-7------7-7------9-9---|
E--7-7------7-7------7-7---|


Pre chorus (X2)(Muted at bits)
e---------------------------------------------|
B---------------------------------------------|
G---------------------------------------------|
D-9-9-----7--6-6----9--7-7---11--9-9----------|
A-7-7-----7--6-6----9--7-7---11--9-9----------|
E-7-7-----5--4-4----7--5-5---9---7-7----------|


Chorus(X4)
e---------------------------------------------------------|
B---------------------------------------------------------|
G---------------------------------------------------------|
D-9-9-9-----9-9-9-----11-11-11----7-7-7-7-----9-----------|
A-7-7-7-----9-9-9-----11-11-11----7-7-7-7-----9-----------|
E-7-7-7-----7-7-7-----9--9--9-----5-5-5-5-----7-----------|


Break down
e----------------------------------------------------------------------|
B----------------------------------------------------------------------|
G----------------------------------------------------------------------|
D-11-11-11-----7-7-7----11-11-11----7-7-7----11-11-11---7-7-7----------|
A-11-11-11-----7-7-7----11-11-11----7-7-7----11-11-11---7-7-7----------|
E-9--9--9------5-5-5----9--9--9-----5-5-5----9--9--9----5-5-5----------|

e-------------------------|
B-------------------------|
G-------------------------|
D-11-11-11---7-7---9-9----|
A-11-11-11---7-7---9-9----|
E-9--9--9----5-5---7-7----|

Order is :

INTRO

VERSE

PRE CHORUS(X2)

CHORUS(X4)

VERSE

PRE CHORUS(X2)

CHORUS(X4)

BREAKDOWN

CHORUS(X8)

Thats it....feel free to correct it. I hope its cool.    

Added On December 5th, 2013

SHARE

Comments

blog comments powered by Disqus

VERSIONS

ADVERTISEMENT