New Found Glory Tabs

Doubt Full

3 versions

TAB

            Doubt Full Tab by New Found Glory


Tabbed by

gowdyjames

well I was using a previous tab but it wasnt right in a few places ...so here goes


Intro:

E--------------------------------------------------------|
B--------------------------------------------------------|
G--------------------------------------------------------|
D--------------------------------------------------------|
A-4h7--4h7------------4h7--4h7p4-------------------------|
E-----------4h7--4h7--------------4h7--4h7---------------|


E--------------------------------------------------------|
B--------------------------------------------------------|
G--------------------------------------------------------|
D--------------------------------------6/9---------------|
A-4h7--4h7------------4h7--4h7p4-------6/9---------------|
E-----------4h7--4h7--------------4h7--4/7---------------|

x2

(both bars above twice. first time they are on their own, then
the second time the other instruments kick in)


Verse:

E----------------------------------------------------------------------|
B----------------------------------------------------------------------|
G-66-666----------66-666----------4--66-666----------66-666------------|
D-66-666--66-666--66-666--66-666--4--66-666--66-666--66-666------6/9---|
A-44-444--66-666--44-444--66-666--2--44-444--66-666--44-444------6/9---|
E---------44-444----------44-444-------------44-444----------4h7-4/7---|

x3

Play the above verse three times

Then play intro through again ONCE

Then play the Verse again twice (x2)

now comes the chorus

Chorus:

E--------------------------------------------------------|
B--------------------------------------------------------|
G--------------666----------------666----------------666-|
D-777777--222--666---777777--222--666---777777--222--666-|
A-777777--222--444---777777--222--444---777777--222--444-|
E-555555--000--------555555--000--------555555--000------|

E----------------------|
B----------------------|
G----------------------|
D-777777--999--101010--|
A-777777--999--101010--|
E-555555--777--8 8 8---|

Play the chorus once

then play intro again once   (x1)

(the strumming on the chorus is not there but the amount of times each
bar chord gets played is exact)

then play verse again twice  (x2)

then chorus again twice      (x2)

then this bridge

Bridge:

E--------------------------------------------|
B--------------------------------------------|
G-6h9--6h9------------6h9--6h9p4-------------|
D-----------6h9--6h9--------------6h9--6h9---|
A--------------------------------------------|
E--------------------------------------------|

PLay the above bridge twice (x2) but the second time. have the first bar of the original 
played over the top of it by guitar 2

then a breakdown bit

Breakdown:

E--------------------|                               E-------------------|
B--------------------|                               B-------------------|
G-66-----------------|    D-66--22--44444444--|
A-44--77--66--44--22-|                               A-44--22--22222222--|
E-----55--44--22--00-|                               E-----00------------|


Then Play the Chorus Again              E------------------------------|
tiwce (x2) but play this   -------->    B------------------------------|
at the end of the 2nd time through      G------------------------------|
NOTE: the change in the end is that     D-777777--9999999999--101010---|
the 9/7 bar chord is played lots        A-777777--9999999999--101010---|
more times.                             E-555555--7777777777--8 8 8 ---|

Then PLay the intro again once (x1)

And that is the end...I think its a prety comrehensive tab of the song that is very 
but you may disagree
so please feel free to e-mail me:    gowdyjames@hotmail.com    

Added On December 5th, 2013

SHARE

Comments

blog comments powered by Disqus

VERSIONS

ADVERTISEMENT