TAB

            This is my first tablature so I fear there will  be some mistakes. Please feel free to correct me, in case.
This is an awesome song of an exceptional artist!!!


~~~~ RIFF ~~~~
    E ---------------------|
    B ---------------------|
    G ---------------------|
    D ---------------------|
    A -----5-5-5-5-3-------|
    E ---3-----------6-3-1-|
~~~~ RIFF ~~~~

~~~~ BREAK ~~~~
    E |------|-------|-------|--------|-----|
    B |------|-------|-------|--------|-----|
    G |---5--|---7---|---8---|---13---|-----|
    D |---5--|---7---|---8---|---13---|-----|
    A |------|-------|-------|--------|-----|
    E |------|-------|-------|--------|-----|
~~~~ BREAK ~~~~

    Gm
    I know you've heard it all before but I'm sorry for this three year war

    For setting up the camps and wires and trenches

    I'm sorry for the other night I know sorry don't make it right

    I'm sorry for things I cannot even mention

~~~~ BREAK ~~~~
         C     D     Eb    G#
    I'm sorry sorry sorry sorry

---- INTRO ----
    I'm sitting feeling sorry in the thirsty dog


~~~~ BREAK ~~~~
         C      D      Eb     G#
    I'm sorry, sorry, sorry, sorry


---- INTRO ----
    I'm sitting feeling sorry in the thirsty dog

Repeat the chords and intro riff for the whole song.    

Added On March 31st, 2014

SHARE

Comments

blog comments powered by Disqus

ADVERTISEMENT