Nightwish Tabs

Eva Solo

4 versions

TAB

            E---------------------------------------------------------------------------------|      
B-15--15--15--14--12--10---12-----------------------------------------------------|       
G------------------------------11-----11---11---14---14---11----------------------|      
D------------------------------------------------------------14---12-----12---14--|        
A---------------------------------------------------------------------------------|      
E---------------------------------------------------------------------------------|
 
E------------------------------------------------------------------------------------14---12--|    
B--------------------------------------------------------------------10---12------------------| 
G-11---12-----12---11---9---9---11-------------11------16---14---9--------------11------------|
D-----------------------------------9---------------------------------------------------------|
A---------------------------------------------------------------------------------------------|
E---------------------------------------------------------------------------------------------|

E----------------------------------------------------------------|
B-10-------------------------------------------------------------|
G------------------------------11---14----16---14---12-----------|
D--------14---12--------12--14-----------------------------------|
A----------------------------------------------------------------|
E----------------------------------------------------------------|    

Added On December 16th, 2013

SHARE

Comments

blog comments powered by Disqus

VERSIONS

ADVERTISEMENT