Nightwish Tabs

Whoever Brings The Night

2 versions

TAB

            Whoever brings the Night

                              Nightwish

                      Dark Passoin Play (2007)
Tabbed by: Johannes W.
Email: Paavo_Paska@hotmail.de

Tuning: D Tuning high to low D-A-F-C-G-D

Hey guys this is my first tab ever so don't be so hard. If someone finds rest of the 
out, please send me, also feedback is welcome.

And now have fun with my Tab: Whoever brings the Night!

INTRO
Riff 1
D|------------------------------------------------------------------|
A|------------------------------------------------------------------|
F|------------------------------------------------------------------|
C|------------------------------------------------------------------|
G|-----5-----5-----5-----5-----5-3-----3-----3-----3-----3-----3-2--|
D|-0-1---0-1---0-1---0-1---0-1-----0-1---0-1---0-1---0-1---0-1------|
   * *   * *   * *   * *   * *     * *   * *   * *   * *   * *

D|---------------------------------------------------------------------|
A|---------------------------------------------------------------------|
F|---------------------------------------------------------------------|
C|---------------------------------------------------------------------|
G|-----3-----3-----2-----2-----5-3-2-----3-----3-----2-----2-----5-3-2-|
D|-0-1---0-1---0-1---0-1---0-1-------0-1---0-1---0-1---0-1---0-1-------|
   * *   * *   * *   * *   * *       * *   * *   * *   * *   * *
Riff 1 a
D|------------------------------------------------------------------|
A|------------------------------------------------------------------|
F|------------------------------------------------------------------|
C|------------------------------------------------------------------|
G|-----5-----5-----5-----5-----5-3-----3-----3-----3-----3-----3-2--|
D|-0-1---0-1---0-1---0-1---0-1-----0-1---0-1---0-1---0-1---0-1------|
   * *   * *   * *   * *   * *     * *   * *   * *   * *   * *

D|---------------------------------------------------------------------|
A|---------------------------------------------------------------------|
F|---------------------------------------------------------------------|
C|---------------------------------------------------------------------|
G|-----2-----2-----2-----2-----3-2-0-----2-----2-----2-----2-----3-2-0-|
D|-0-1---0-1---0-1---0-1---0-1-------0-1---0-1---0-1---0-1---0-1-------|
   * *   * *   * *   * *   * *       * *   * *   * *   * *   * *
 Play Intro two times

VERSE
D|------------------------------------------------------------|
A|------------------------------------------------------------|
F|-------------------------------------------4-5-7-8-7-4-5-7--|
C|-2-2--2-2-4/5--2-2--2-2-4-5--2-2--2-2-4-5--4-5-7-8-7-4-5-7--|
G|-2-2--2-2-4/5--2-2--2-2-4-5--2-2--2-2-4-5--2-3-5-6-5-2-3-5--|
D|-0-0--0-0-2/3--0-0--0-0-2/3--0-0--0-0-2/3-------------------|
   * *  * *      * *  * *      * *  * *

D|---------------------------------------------------|
A|---------------------------------------------------|
F|-------------------------------------------4-5-7-8-|
C|-2-2--2-2-4/5--2-2--2-2-4-5--2-2--2-2-4-5--4-5-7-8-|
G|-2-2--2-2-4/5--2-2--2-2-4-5--2-2--2-2-4-5--2-3-5-6-|
D|-0-0--0-0-2/3--0-0--0-0-2/3--0-0--0-0-2/3----------|
   * *  * *      * *  * *      * *  * *

D|------------------------------------------------------------|
A|------------------------------------------------------------|
F|-------------------------------------------4-5-7-8-7-4-5-7--|
C|-2-2--2-2-4/5--2-2--2-2-4-5--2-2--2-2-4-5--4-5-7-8-7-4-5-7--|
G|-2-2--2-2-4/5--2-2--2-2-4-5--2-2--2-2-4-5--2-3-5-6-5-2-3-5--|
D|-0-0--0-0-2/3--0-0--0-0-2/3--0-0--0-0-2/3-------------------|
   * *  * *      * *  * *      * *  * *

D|-------------------------------------------------------|
A|-------------------------------------------------------|
F|-------------------------------------------4-5-7-8-7-5-|
C|-2-2--2-2-4/5--2-2--2-2-4-5--2-2--2-2-4-5--4-5-7-8-7-5-|
G|-2-2--2-2-4/5--2-2--2-2-4-5--2-2--2-2-4-5--2-3-5-6-5-3-|
D|-0-0--0-0-2/3--0-0--0-0-2/3--0-0--0-0-2/3--------------|
   * *  * *      * *  * *      * *  * *

D|--------------|
A|--------------|
F|--4-4-4-4-4-4-|
C|--4-4-4-4-4-4-|
G|--2-2-2-2-2-2-|
D|--------------|

Haven't Chorus figured out yet, help would be welcome!

After Chorus play Riff 1 a

| *  palm mute
| /  slide up
| \  slide down
| h  hammer-on
| p  pull-off
| ~  vibrato
| +  harmonic ============================================================================    

Added On December 16th, 2013

SHARE

Comments

blog comments powered by Disqus

VERSIONS

ADVERTISEMENT