Nirvana Tabs

All Apologies Intro

1 versions

TAB

            All Apologies Tab by Nirvana


Artist: Nirvana
Song: All Apologies
Album: nevermind
Tabed By: paul


This is 100% correct. If any quetions or comments E-mail me at cr05@yosemite.net or just comment me. It played in dropped D.


E|----------------------------------------------------|
B|----------------------------------------------------|
G|----------------------------------------------------|
D|---------------------------------10/-12-12-10-9-----|
A|---9-10-9-10/12-12-10-9---9-10-9--------------------|
D|-0----------------------0---------------------------|


E|--------------------------------------------|
B|--------------------------------------------|
G|--------------------------------11-9--------|
D|-------------------------------------12-----|
A|---9-10-9-10/12-12-10-9---9-10--------------|
D|-0----------------------0-------------------|


There's the intro hope you like it!    

Added On December 5th, 2013

SHARE

Comments

blog comments powered by Disqus

ADVERTISEMENT