Nirvana Tabs

Eagle Has Landed

1 versions

TAB

            Main part (VERSE)

The first tone is an F supported by feedback ...
-----------------------------------|
-----------------------------------|
-----------------------------------|
--4-4-4-4-8-8-8-8-9-9-9-9-5-5-5-5--| play 8 times
--4-4-4-4-8-8-8-8-9-9-9-9-5-5-5-5--|
--2-2-2-2-6-6-6-6-7-7-7-7-3-3-3-3--|

Chorus (or whatever you can call it):
-------------------------------------------|
-------------------------------------------|
----4-3--3-43-----4-3--3-43----------------| play 8 times
--4----------------4-----------------------|
--4----------------4-----------------------|
--2----------------2-----------------------|

Solo:
----------------------------------------------------------------------------|
----------------------------/16-16-16--------------------------9-9-9-9-9----|
----------------------------/x--x--x---------------------------9-9-9-9-9-0--|
--4-4-4---8-8-8----9-9-9---/15-15-15---4--4-4-8-8-8-8-8-9-9-9---------------|
--4-4-4-0-8-8-8-0--9-9-9-x-----------0-4--4-4-8-8-8-8-8-9-9-9---------------|
--2-2-2-0-6-6-6-0--7-7-7-x-------------2--2-2-6-6-6-6-6-7-7-7---------------|

--------------------------------------------------------------------|
------------------------------0-0-----------------------------------|
----------------------------0-0-0-----------------------------------|
-4--4-4-8-8-8-8-8-8-8-0-3-4-------4--4-4-8-8-8-8-9-9-9-9-5-5-5-5----|
-4--4-4-8-8-8-8-8-8-8-------------4--4-4-8-8-8-8-9-9-9-9-5-5-5-5----|
-2--2-2-6-6-6-6-6-6-6-------------2--2-2-6-6-6-6-7-7-7-7-3-3-3-3----|

The song ends with the F chord and even more feedback ... have fun playing it!!    

Added On December 16th, 2013

SHARE

Comments

blog comments powered by Disqus

ADVERTISEMENT