Nirvana Tabs

Mollys Lips

4 versions

TAB

            Ok this is a really easy song, the same the whole way through. Just get used to it, and 
is like the easiest song ever.

Tuning: now i guess the tuning is 1/2 a step down, because all nirvana songs are tuned 
way.

I made one section for just the guitar and one section for the lyrics. It is really 
Ok, here it is:

Guitar:

Intro:
e|--------------------------------------|
B|--------------------------------------|
G|-----------5-5-5-------------5-5-5----|
D|--5-5-5----5-5-5----5-5-5----5-5-5----|
A|--5-5-5----3-3-3----5-5-5----3-3-3----|
E|--3-3-3-------------3-3-3-------------|

Verse 1:
e|----------------------------------------------------------------------|
B|----------------------------------------------------------------------|
G|-----------5-5-5-------------5-5-5-------------5-5-5-------------5-5-5|
D|--5-5-5----5-5-5----5-5-5----5-5-5----5-5-5----5-5-5----5-5-5----5-5-5|
A|--5-5-5----3-3-3----5-5-5----3-3-3----5-5-5----3-3-3----5-5-5----3-3-3|
E|--3-3-3-------------3-3-3-------------3-3-3-------------3-3-3---------|

e|----------------------------------------------------------------------|
B|----------------------------------------------------------------------|
G|-----------5-5-5-------------5-5-5-------------5-5-5-------------5-5-5|
D|--5-5-5----5-5-5----5-5-5----5-5-5----5-5-5----5-5-5----5-5-5----5-5-5|
A|--5-5-5----3-3-3----5-5-5----3-3-3----5-5-5----3-3-3----5-5-5----3-3-3|
E|--3-3-3-------------3-3-3-------------3-3-3-------------3-3-3---------|

Main Chorus:

e|----------------------------------------------------------------------|
B|----------------------------------------------------------------------|
G|-----------5-5-5-------------5-5-5-------------5-5-5-------------5-5-5|
D|--5-5-5----5-5-5----5-5-5----5-5-5----5-5-5----5-5-5----5-5-5----5-5-5|
A|--5-5-5----3-3-3----5-5-5----3-3-3----5-5-5----3-3-3----5-5-5----3-3-3|
E|--3-3-3-------------3-3-3-------------3-3-3-------------3-3-3---------|

e|----------------------------------------------------------------------|
B|----------------------------------------------------------------------|
G|-----------5-5-5-------------5-5-5-------------5-5-5-------------5-5-5|
D|--5-5-5----5-5-5----5-5-5----5-5-5----5-5-5----5-5-5----5-5-5----5-5-5|
A|--5-5-5----3-3-3----5-5-5----3-3-3----5-5-5----3-3-3----5-5-5----3-3-3|
E|--3-3-3-------------3-3-3-------------3-3-3-------------3-3-3---------|

Verse 2:
e|----------------------------------------------------------------------|
B|----------------------------------------------------------------------|
G|-----------5-5-5-------------5-5-5-------------5-5-5-------------5-5-5|
D|--5-5-5----5-5-5----5-5-5----5-5-5----5-5-5----5-5-5----5-5-5----5-5-5|
A|--5-5-5----3-3-3----5-5-5----3-3-3----5-5-5----3-3-3----5-5-5----3-3-3|
E|--3-3-3-------------3-3-3-------------3-3-3-------------3-3-3---------|

e|----------------------------------------------------------------------|
B|----------------------------------------------------------------------|
G|-----------5-5-5-------------5-5-5-------------5-5-5-------------5-5-5|
D|--5-5-5----5-5-5----5-5-5----5-5-5----5-5-5----5-5-5----5-5-5----5-5-5|
A|--5-5-5----3-3-3----5-5-5----3-3-3----5-5-5----3-3-3----5-5-5----3-3-3|
E|--3-3-3-------------3-3-3-------------3-3-3-------------3-3-3---------|

Main Chorus:
e|----------------------------------------------------------------------|
B|----------------------------------------------------------------------|
G|-----------5-5-5-------------5-5-5-------------5-5-5-------------5-5-5|
D|--5-5-5----5-5-5----5-5-5----5-5-5----5-5-5----5-5-5----5-5-5----5-5-5|
A|--5-5-5----3-3-3----5-5-5----3-3-3----5-5-5----3-3-3----5-5-5----3-3-3|
E|--3-3-3-------------3-3-3-------------3-3-3-------------3-3-3---------|

e|----------------------------------------------------------------------|
B|----------------------------------------------------------------------|
G|-----------5-5-5-------------5-5-5-------------5-5-5-------------5-5-5|
D|--5-5-5----5-5-5----5-5-5----5-5-5----5-5-5----5-5-5----5-5-5----5-5-5|
A|--5-5-5----3-3-3----5-5-5----3-3-3----5-5-5----3-3-3----5-5-5----3-3-3|
E|--3-3-3-------------3-3-3-------------3-3-3-------------3-3-3---------|

e|----------------------------------------------------------------------|
B|----------------------------------------------------------------------|
G|-----------5-5-5-------------5-5-5-------------5-5-5-------------5-5-5|
D|--5-5-5----5-5-5----5-5-5----5-5-5----5-5-5----5-5-5----5-5-5----5-5-5|
A|--5-5-5----3-3-3----5-5-5----3-3-3----5-5-5----3-3-3----5-5-5----3-3-3|
E|--3-3-3-------------3-3-3-------------3-3-3-------------3-3-3---------|

e|----------------------------------------------------------------------|
B|----------------------------------------------------------------------|
G|-----------5-5-5-------------5-5-5-------------5-5-5-------------5-5-5|
D|--5-5-5----5-5-5----5-5-5----5-5-5----5-5-5----5-5-5----5-5-5----5-5-5|
A|--5-5-5----3-3-3----5-5-5----3-3-3----5-5-5----3-3-3----5-5-5----3-3-3|
E|--3-3-3-------------3-3-3-------------3-3-3-------------3-3-3---------|

e|----------------------------------------------------------------------|
B|----------------------------------------------------------------------|
G|-----------5-5-5-------------5-5-5-------------5-5-5-------------5-5-5|
D|--5-5-5----5-5-5----5-5-5----5-5-5----5-5-5----5-5-5----5-5-5----5-5-5|
A|--5-5-5----3-3-3----5-5-5----3-3-3----5-5-5----3-3-3----5-5-5----3-3-3|
E|--3-3-3-------------3-3-3-------------3-3-3-------------3-3-3---------|

e|----------------------------------------------------------------------|
B|----------------------------------------------------------------------|
G|-----------5-5-5-------------5-5-5-------------5-5-5-------------5-5-5|
D|--5-5-5----5-5-5----5-5-5----5-5-5----5-5-5----5-5-5----5-5-5----5-5-5|
A|--5-5-5----3-3-3----5-5-5----3-3-3----5-5-5----3-3-3----5-5-5----3-3-3|
E|--3-3-3-------------3-3-3-------------3-3-3-------------3-3-3---------|

e|-------3---3--0------|
B|-----5---5-----------|
G|---------------------|
D|---------------------|
A|--5------------------|
E|--5------------------|

Lyrics:

Verse 1:

She said,
She'd take me anywhere.
She'd take me anywhere,
As long as she stayed with me.

She said,
She'd tak me anywhere.
She'd take me anywhere,
As long as I stayed clean.

Main Chorus:

Kiss kiss Molly's lips
Kiss kiss Molly's lips
Kiss kiss Molly's lips
Kiss kiss Molly's lips

Verse 2:

She said,
She'd take me anywhere.
She'd take me anywhere,
As long as she stayed with me.

She said,
She'd tak me anywhere.
She'd take me anywhere,
As long as I stayed clean.

Main Chorus:

Kiss kiss Molly's lips
Kiss kiss Molly's lips
Kiss kiss Molly's lips
Kiss kiss Molly's lips

Kiss kiss Molly's lips
Kiss kiss Molly's lips
Kiss kiss Molly's lips
Kiss kiss Molly's lips

Guitar Ending

and that's the song! really cool, and really easy to play.    

Added On December 16th, 2013

SHARE

Comments

blog comments powered by Disqus

VERSIONS

ADVERTISEMENT