Nirvana Tabs

Negative Creep

5 versions

TAB

            -------------------------------------------------------------------------------
			     Negative Creep - Nirvana
-------------------------------------------------------------------------------
Tabbed by: gwyder
Email: mirzamerdovic@gmail.com

Tuning: EADGBE

Intro:
e|---------------------------------------------------------------------------|
B|---------------------------------------------------------------------------|
G|---------------------------------------------------------------------------|
D|---------------------------------------------------------------------------|
A|-2-2-2-2-2-2-2-2-----------------------------------------------------------|
E|-0-0-3-0-0-0-0-3-----------------------------------------------------------|

Verse
e|---------------------------------------------------------------------------|
B|---------------------------------------------------------------------------|
G|---------------------------------------------------------------------------|
D|---------------------------------------------------------------------------|
A|-2-2-2-2-2-2-2-2-2-2-2-2-2-2-2-2-2-2-2-2-2-2-2-2-2-2-2-2-3p----------------|
E|-0-0-3-0-0-0-0-3-0-0-3-0-0-0-0-3-0-0-3-0-0-0-0-3-0-0-3-0-------------------|

e|---------------------------------------------------------------------------|
B|---------------------------------------------------------------------------|
G|---------------------------------------------------------3p----------------|
D|---------------------------------------------------------------------------|
A|-2-2-2-2-2-2-2-2-2-2-2-2-2-2-2-2-2-2-2-2-2-2-2-2-2-2-2-2-------------------|
E|-0-0-3-0-0-0-0-3-0-0-3-0-0-0-0-3-0-0-3-0-0-0-0-3-0-0-3-0-------------------|
Chorus:
e|---------------------------------------------------------------------------|
B|---------------------------------------------------------------------------|
G|---------------------------------------------------------------------------|
D|-7-5-----------------------------------------------------------------------|
A|-5-3-3-3-3-3-4-4-6-8-8-8-8-------------------------------------------------|
E|-----1-1-1-1-2-2-4-6-6-6-6-------------------------------------------------|


| /  slide up
| \  slide down
| h  hammer-on
| p  pull-off
| ~  vibrato
| +  harmonic
| x  Mute note
===============================================================================    

Added On December 16th, 2013

SHARE

Comments

blog comments powered by Disqus

VERSIONS

ADVERTISEMENT