Nodes Of Ranvier Tabs

Eight Weeks Of Privilege No Time For Regret

1 versions

TAB

            Eight Weeks Of Privilege No Time For Regret Tab by Nodes Of Ranvier


Tuning: Standard (EADGBe)

This is an awesome song and is pretty easy once you figure it out. Its my first tab,
so it might not be perfect, but I'm pretty sure most of it is right. Feel free to
email me about any mistakes.
 
  (Intro: 0:16)
e|-------------------------------------------------------------------------|
B|-------------------------------------------------------------------------|
G|-------------------------------------------------------------------------|
D|---7-8-9-10----0000-000-0000-000-----(x4)--------------------------------|
A|---------------0000-000-0000-000-----------------------------------------|
E|---------------0000-000-0000-000-----------------------------------------|
  (0:41)
e|-------------------------------------------------------------------------|
B|-------------------------------------------------------------------------|
G|-------------------------------------------------------------------------|
D|---0000-0--0000-0--0000-0--0000-0--0000-0--0000-0--0000-0--0000-0--000---|
A|---0000-0--0000-0--0000-0--0000-0--0000-0--0000-0--0000-0--0000-0--000---|
E|---0000-0--0000-0--0000-0--0000-0--0000-0--0000-0--0000-0--0000-0--000---|
  (1:00)
e|-------------------------------------------------------------------------|
B|-------------------------------------------------------------------------|
G|-------------------------------------------------------------------------|
D|-------------------------------------------------555555-444-555555—44(x4)|
A|-888--777--555--777--55-33--888-777-999-888-77-8-333333-222-333333-22----|
E|-------------------------------------------------------------------------|
  (1:38)
e|-------------------------------------------------------------------------|
B|-------------------------------------------------------------------------|
G|-------------------------------------------------------------------------|
D|-10--99—-77/9--9--7--5--1010--99—-12-12—-1010—-9/10—10--55\\22//33\\22(x4)
A|-8---77--55/7--7--5--3—-8-8---77—-10-10—-8-8---7/8--8—--33\\22//33\\22---|
E|-------------------------------------------------------------------------|
  (2:29)
e|-------------------------------------------------------------------------|
B|-------------------------------------------------------------------------|
G|-77777777---10-10-10-10-10-10-10-10--55555555--12-12-12-12-12-12-12-12(x2)
D|-------------------------------------------------------------------------|
A|-55555555---8—-8--8—-8--8—-8—-8--8---33333333--10-10-10-10-10-10-10-10---|
E|-------------------------------------------------------------------------|
  (2:53)
e|-------------------------------------------------------------------------|
B|-------------------------------------------------------------------------|
G|-77777777----55555555------------------77777777--55555555---55555555-----|
D|---------------------------3-5-3-----------------------------------------|
A|-55555555----33333333--3-5-------5-3---55555555--33333333---33333333-----|
E|-------------------------------------------------------------------------|
  (3:16)                                 (* = palm mute)      ********
e|-------------------------------------------------------------------------|
B|-------------------------------------------------------------------------|
G|--10-9--7--9--7--9--7--5--10-9--7--9--12--10-9--10----55\\22//33\\22-(x2)|
D|-------------------------------------------------------------------------|
A|--8--7--5--7--5--7--5--3--8--7--5--7--10--8--7--8-----33\\22//33\\22-----|
E|-------------------------------------------------------------------------|
  (3:39)
e|-------------------------------------------------------------------------|
B|-------------------------------------------------------------------------|
G|--7--9--10-9--77--9--11-9--10----12~~~~~~~~~~----------------------------|
D|-----------------------------------~~~~~~~~~~----------------------------|
A|--5--7--8--7--55--7--8--7--8—----10~~~~~~~~~~----------------------------|    

Added On December 5th, 2013

SHARE

Comments

blog comments powered by Disqus

ADVERTISEMENT