Obituary Tabs

Inverted

1 versions

TAB

            Inverted Tab by Obituary


                               OBITUARY - INVERTED 
                       From the Album - BACK FROM THE DEAD 
                       Copyright - ROADRUNNER RECORDS 1997 
                            Version 1.0 - MAY 1, 2002 

Transcribed by: James Williams (Inverted) 

For Questions, Comments, Newest Version, or Corrections contact 
Inverted: at Inverted_one@hotmail.com 

Check Out Death8699.com Metaltabs.com or dsrmusic.com for More 
Transcriptions:http://www.Death8699.com http://www.Metaltabs.com 
 

.  - palm mute           /  - slide up to 
\  - slide down to       ~  - vibrato 
h  - hammer on           b  - Bend 
p  - pull off            Suffixes for bend 
t  - tap                 f  - full bend    h - half bend 
ph - pinched harmonic    q  - quarter bend t - tap bend 
*  - see comment         ^  - Hold bend    r release bend 
x  - Stuccatto           ~  - vibrato bend 
,  - slight palm mute    () - ghost note, sustained note 
"  - tremolo note         - Trill 

Tuning: "D"G"C"F"A"D" 

Fill 1
|------------| 
|------------| 
|------------| 
|------------| 
|--5----3----| 
|--3----1----| 

Riff 1 
|-------------------------------------------| 
|-------------------------------------------| 
|-------------------------------------------| 
|-------------------------------------------| 
|--2---------3---------4-----3-----5-----3--| 
|--0--000000-1--000000-2-000-1-000-3-000-1--| 
      ......    ......   ...   ...   ... 

Riff 2 
|--------------------------------------| 
|--------------------------------------| 
|--------------------------------------| 
|--------------------------------------| 
|--5-4-4-4--6-5-5-5--7-6-6-6--8-7-7-7--| 
|--3-2-2-2--4-3-3-3--5-4-4-4--6-5-5-5--| 


Riff 3 
|----------------------------------------------------------------| 
|----------------------------------------------------------------| 
|----------------------------------------------------------------| 
|----------------------------------------------------------------| 
|--5--6--3------------------------5--6--8------------------------| 
|--3--4--1--00000000000000000000--3--4--6--00000000000000000000--| 


Riff 4-A 
|------------------------------------| 
|------------------------------------| 
|------------------------------------| 
|------------------------------------| 
|------------------------------------| 
|--33332222555544446666555577776666--| 


Riff 4-B 
|------------------------------------| 
|------------------------------------| 
|------------------------------------| 
|------------------------------------| 
|--5---4---7---6---8---7---9---8x----| 
|--3---2---5---4---6---5---7---5x----| 


Riff 2 
|--------------------------------------| 
|--------------------------------------| 
|--------------------------------------| 
|--------------------------------------| 
|--5-4-4-4--6-5-5-5--7-6-6-6--8-7-7-7--| 
|--3-2-2-2--4-3-3-3--5-4-4-4--6-5-5-5--| 


Riff 2-A
|--------------------------------------| 
|--------------------------------------| 
|--------------------------------------| 
|--------------------------------------| 
|--5-4-4-4--6-5-5-5--7-6-6-6--5/4-5----| 
|--3-2-2-2--4-3-3-3--5-4-4-4--3/2-3----| 


Riff 2 
|--------------------------------------| 
|--------------------------------------| 
|--------------------------------------| 
|--------------------------------------| 
|--5-4-4-4--6-5-5-5--7-6-6-6--5--4x----| 
|--3-2-2-2--4-3-3-3--5-4-4-4--3--2x----| 


Fill 2
|---------|
|---------|
|---------|
|---------|
|--5/4-5--|
|--3/2-3--|


Riff 5
|--------------------------------------------------------| 
|--------------------------------------------------------| 
|--------------------------------------------------------| 
|---------------------------------------------3----------| 
|--2---------------3---5/4-5--2---------------1---5/4-5--| 
|--0---0-0-0-0-0-0-1---3/2-3--0---0-0-0-0-0-0-1---3/2-3--| 
       . . . . . .                . . . . . . 

End song on an E5 chord!


Check out my other tabs by Obituary, Deicide, Six Feet Under,
Catastrophic, Hypocrisy, Grave, Incantation and Death.    

Added On December 5th, 2013

SHARE

Comments

blog comments powered by Disqus

ADVERTISEMENT