Panic At The Disco Tabs

I Write Sins Not Tragedies

5 versions

TAB

            ok im pretty sure this is 100% right unless i made a few mistakes on this... but tell me 
u think =]

Intro

E|------------------------------------------------------------------|
B|------------------------------------------------------------------|
G|-------5---4--------5---4-------5--4-------5--4-------------------|
D|-----2---2-------2----2-------2---2------2---2--------------------|
A|---0-----------0------------0----------0--------------------------|
D|------------------------------------------------------------------|

E|------------------------------------------------------------------|
B|-------3------------3---------------------------------------------|
G|-----5---5-4------5---5-4-------4-5--4-5-----4-5--4-5-------------|
D|---4------------4------------3-------------3----------------------|
A|------------------------------------------------------------------|
D|------------------------------------------------------------------|

Verse 1

E|------------------------------------------------------------------|
B|------------------------------------------------------------------|
G|-------5---4--------5---4-------5--4-------5--4-------------------|
D|-----2---2-------2----2-------2---2------2---2--------------------|
A|---0-----------0------------0----------0--------------------------|
D|------------------------------------------------------------------|

E|------------------------------------------------------------------|
B|-------3------------3---------------------------------------------|
G|-----5---5-4------5---5-4-------4-5--4-5-----4-5--4-5-------------|
D|---4------------4------------3-------------3----------------------|
A|------------------------------------------------------------------|
D|------------------------------------------------------------------|

E|------------------------------------------------------------------|
B|------------------------------------------------------------------|
G|-------5---4--------5---4-------5--4-------5--4-------------------|
D|-----2---2-------2----2-------2---2------2---2--------------------|
A|---0-----------0------------0----------0--------------------------|
D|------------------------------------------------------------------|

E|------------------------------------------------------------------|
B|-------3------------3---------------------------------------------|
G|-----5---5-4------5---5-4-------4-5--4-5-----4-5--4-5-------------|
D|---4------------4------------3-------------3-----------3----------|
A|------------------------------------------------------------------|
D|------------------------------------------------------------------|


Chorus

E|----------------------------------------------|
B|----------------------------------------------|
G|----------------------------------------------|
D|---7-7----7-7-7---------3-3--3-3-3------------|
A|---7-7----7-7-7---------3-3--3-3-3------------|
D|---7-7----7-7-7---------3-3--3-3-3-0----------|

E|----------------------------------------------| x2
B|----------------------------------------------|
G|--7-7-7-7-7-7---------------------------------|
D|--7-7-7-7-7-7---------------------------------|
A|--5-5-5-5-5-5---------------------------------|
D|----------------------------------------------|

E|-------------------------------------------------------------|
B|-------------------------------------------------------------|
G|-------------------------------------------------------------|
D|--7-7-7-7-7-7-7-7---3-3-3-3-3-3-3-3---0-0-0-0-0-0-0-0-----5--|
A|--7-7-7-7-7-7-7-7---3-3-3-3-3-3-3-3---0-0-0-0-0-0-0-0-----5--|
D|--7-7-7-7-7-7-7-7---3-3-3-3-3-3-3-3---0-0-0-0-0-0-0-0-----5--|

e|-------------------------------------------------------------|
b|-------------------------------------------------------------|
g|-------------------------------------------------------------|
d|--7-7-7-7-7-7-7-7---3-3-3-3-3-3-3-3---0-0-0-0-0-0-0-0--------|
a|--7-7-7-7-7-7-7-7---3-3-3-3-3-3-3-3---0-0-0-0-0-0-0-0--------|
D|--7-7-7-7-7-7-7-7---3-3-3-3-3-3-3-3---0-0-0-0-0-0-0-0--------|


Verse 2

E|------------------------------------------------------------------|
B|------------------------------------------------------------------|
G|-------5---4--------5---4-------5--4-------5--4-------------------|
D|-----2---2-------2----2-------2---2------2---2--------------------|
A|---0-----------0------------0----------0--------------------------|
D|------------------------------------------------------------------|

E|------------------------------------------------------------------|
B|-------3------------3---------------------------------------------|
G|-----5---5-4------5---5-4-------4-5--4-5-----4-5--4-5-------------|
D|---4------------4------------3-------------3----------------------|
A|------------------------------------------------------------------|
D|------------------------------------------------------------------|

E|------------------------------------------------------------------|
B|------------------------------------------------------------------|
G|-------5---4--------5---4-------5--4-------5--4-------------------|
D|-----2---2-------2----2-------2---2------2---2--------------------|
A|---0-----------0------------0----------0--------------------------|
D|------------------------------------------------------------------|

E|------------------------------------------------------------------|
B|-------3------------3---------------------------------------------|
G|-----5---5-4------5---5-4-------4-5--4-5-----4-5--4-5-------------|
D|---4------------4------------3-------------3----------------------|
A|------------------------------------------------------------------|
D|------------------------------------------------------------------|


Palm Mute or play regularly if u want

E|-----------------------------------------|
B|-----------------------------------------|
G|---------------7-7--5-5-5-5-5-5-5-5------|
D|--3-3-3-3-3-3--7-7--5-5-5-5-5-5-5-5------|
A|--3-3-3-3-3-3--5-5--3-3-3-3-3-3-3-3------|
D|--3-3-3-3-3-3----------------------------|

E|-----------------------------------------|
B|-----------------------------------------|
G|---------------5-5--7-7-7-7-7-7-7-7------|
D|--3-3-3-3-3-3--5-5--7-7-7-7-7-7-7-7------|
A|--3-3-3-3-3-3--3-3--5-5-5-5-5-5-5-5------|
D|--3-3-3-3-3-3----------------------------|

Chorus


E|-------------------------------------------------------------|
B|-------------------------------------------------------------|
G|-------------------------------------------------------------|
D|--7-7-7-7-7-7-7-7---3-3-3-3-3-3-3-3---0-0-0-0-0-0-0-0-----5--|
A|--7-7-7-7-7-7-7-7---3-3-3-3-3-3-3-3---0-0-0-0-0-0-0-0-----5--|
D|--7-7-7-7-7-7-7-7---3-3-3-3-3-3-3-3---0-0-0-0-0-0-0-0-----5--|

e|-------------------------------------------------------------|x2
b|-------------------------------------------------------------|
g|-------------------------------------------------------------|
d|--7-7-7-7-7-7-7-7---3-3-3-3-3-3-3-3---0-0-0-0-0-0-0-0--------|
a|--7-7-7-7-7-7-7-7---3-3-3-3-3-3-3-3---0-0-0-0-0-0-0-0--------|
D|--7-7-7-7-7-7-7-7---3-3-3-3-3-3-3-3---0-0-0-0-0-0-0-0--------|

Interlude

e|------------------------------------------------------|
b|------------------------------------------------------|
g|-------------------7-7-7-7-7-7-7-7---5-5-5-5-5-5-5-5--|
d|--3-3-3-3-3-3-3-3--7-7-7-7-7-7-7-7---5-5-5-5-5-5-5-5--|
a|--3-3-3-3-3-3-3-3--5-5-5-5-5-5-5-5---3-3-3-3-3-3-3-3--|
D|--3-3-3-3-3-3-3-3-------------------------------------|

e|------------------------------------------------------| x2
b|------------------------------------------------------|
g|-------------------5-5-5-5-5-5-5-5--7-7-7-7-7-7-7-7---|
d|--3-3-3-3-3-3-3-3--5-5-5-5-5-5-5-5--7-7-7-7-7-7-7-7---|
a|--3-3-3-3-3-3-3-3--3-3-3-3-3-3-3-3--5-5-5-5-5-5-5-5---|
D|--3-3-3-3-3-3-3-3-------------------------------------|

Chorus

E|----------------------------------------------|
B|----------------------------------------------|
G|----------------------------------------------|
D|---7-7----7-7-7---------3-3--3-3-3------------|
A|---7-7----7-7-7---------3-3--3-3-3------------|
D|---7-7----7-7-7---------3-3--3-3-3-0----------|

E|----------------------------------------------| x4
B|----------------------------------------------|
G|--7-7-7-7-7-7---------------------------------|
D|--7-7-7-7-7-7---------------------------------|
A|--5-5-5-5-5-5---------------------------------|
D|----------------------------------------------|

Interlude


e|------------------------------------------------------|
b|------------------------------------------------------|
g|-------------------7-7-7-7-7-7-7-7---5-5-5-5-5-5-5-5--|
d|--3-3-3-3-3-3-3-3--7-7-7-7-7-7-7-7---5-5-5-5-5-5-5-5--|
a|--3-3-3-3-3-3-3-3--5-5-5-5-5-5-5-5---3-3-3-3-3-3-3-3--|
D|--3-3-3-3-3-3-3-3-------------------------------------|

e|------------------------------------------------------| x2
b|------------------------------------------------------|
g|-------------------5-5-5-5-5-5-5-5--7-7-7-7-7-7-7-7---|
d|--3-3-3-3-3-3-3-3--5-5-5-5-5-5-5-5--7-7-7-7-7-7-7-7---|
a|--3-3-3-3-3-3-3-3--3-3-3-3-3-3-3-3--5-5-5-5-5-5-5-5---|
D|--3-3-3-3-3-3-3-3-------------------------------------|


End
e|----------------|
b|----------------|
g|----------------|
d|--3-3-3-3-------|
a|--3-3-3-3-------|
D|--3-3-3-3-------|

Tell me what u guys think... if theres any corrections thats u suggest... email me at 
=]    

Added On December 16th, 2013

SHARE

Comments

blog comments powered by Disqus