Paramore Tabs

Just Like Me

2 versions

TAB

            This is the basic pattern, let me know if there are any errors.
Intro/ main theme
E|-------------------------------------------|
B|-------------------------------------------|
G|-------------------------------------------|
D|---2--0------2--0-------2--0-------2--0----|
A|--4----4-4--4-----4-4--3-----3-3--3----3-3-|
D|-4--4---4--4--4----4--3--3----3--3--3---3--|

Chord diagrams
  F#5 G5 A5 D5 F5 A#5 C5
E|----------------------|
B|----------------------|
G|-------------------5--|
D|-4--5--7--0--3--8--5--|
A|-4--5--7--0--3--8--3--|
D|-4--5--7--0--3--8-----|

F#5                    F5
I slipped down the stairs,
F#5                     F5
Tripped over your fragile ego,
F#5                 F5
I slid down the hallway,
F#5                F5
Right into the web you'd woven

cHORUS
A5
And you never said,
                  G5
That you meant to save someone,
D5
Somebody just like me,
A5
And you never told me,
              G5
You wanted to love someone,
D5
Somebody just like me

End of chorus
E|------------------|
B|------------------|
G|----------------9-|
D|-9-11-9-11-9-11---|
A|------------------|
D|------------------|

VERSE 2: same as above

You locked all the doors,
You felt it was safer that way,
You put up a wall,
And now your whole world is caving in

CHORUS 2
G5                     A#5
You swallow your pride as,
              F5
You left behind,
         C5
Counting stars to name your lies,
G5              A#5
You let the rain,
           F5
Push you away,
              C5
And now you're drowning in the waves

Solo
E|------------------------------------|
B|-15-15-15-15-15-13-13-12-10-----7---|
G|----------------------------7-9---9-|
D|------------------------------------|
A|------------------------------------|
D|------------------------------------|


CHORUS 3    

Added On December 16th, 2013

SHARE

Comments

blog comments powered by Disqus

VERSIONS

ADVERTISEMENT