Paramore Tabs

Matilda

1 versions

TAB

            Matilda - Paramore (cover of Alt-J)

https://www.youtube.com/watch?v=VIlh5TexuuU

Pattern A     (E shaped barre chord 4th fret)   

e|---------|---------|---------|---------|
B|---------|---------|---------|---------|
G|-5-------|-5-------|-5-------|-5-------|
D|---6---6-|---6---6-|---6---6-|---6---6-| x2
A|-----6---|-----6---|-----6---|-----6---|
E|-4-------|---------|---------|---------|

Pattern B     (E shaped barre chord 9th fret)

e|----------|----------|----------|----------|----------|
B|----------|----------|----------|----------|----------|
G|-10-------|-10-------|-10-------|-10-------|-10-------|
D|---11--11-|---11--11-|---11--11-|---11--11-|---11--11-|
A|-----11---|-----11---|-----11---|-----11---|-----11---|
E|-9--------|----------|----------|-9--------|-9--------|

e|----------|----------|
B|----------|----------|
G|-10-------|-10-------|
D|---11--11-|---11-----|
A|-----11---|-----11---|
E|----------|----------|

Pattern C

e|---------------------------|        |---------------|
B|---------------------------|        |---------------|
G|---------------------------|        |---------------|
D|-11-------3-----6----5-----|  3x    |-11--------5---| 1x
A|---13------4-----8----6----|        |---13-------6--|
E|-----13-----4-----8----6---|        |-----13------6-|

Pattern D

e|--------------------------|
B|--------------------------|
G|--------------------------|
D|-11----10-----3----10-----|
A|---13----11----4-----11---|
E|-----13----11---4------11-|

Outtro

e|---------------------------|
B|---------------------------|
G|---------------------------|
D|-5-----3-----10-----10-----|
A|--6-----4------11-----11---|
E|---6-----4-------11-----11-|



______________________________________________________________________
(Lyrics aligned with guitar patterns)


Matilda - Paramore (cover of Alt-J)
___________________________________

                                           [Pattern A and B]
This is from, this is from, This is from Matilda

[Pattern C]
Just like Johnny Flynn said
The breath I've taken and the one I must to go on
Put the grenade pin in your hand, so you understand who's boss
My defeat sleeps top to toe with her success
                                             [Pattern A and B]
Oh, this is from, this is from, this is from Matilda

[Pattern D]

And she needs you, this is from Matilda
And she needs you, this is from Matilda
And she needs you, this is from Matilda

[Pattern C with double speed arpeggio]

Just like Johnny Flynn said
The breath I've taken and the one I must to go on
Put the grenade pin in your hand, so you understand who's boss
My defeat sleeps top to toe with her success
                                           [Pattern A and B]
Oh, this is from, this is from, this is from Matilda

[Pattern D]

And she needs you, this is from Matilda
And she needs you, this is from Matilda

[Pattern D faster arpeggio]
And she needs you, this is from Matilda
                                     [stay on last chord]
Love is squandered to us, cela vient de Matilda

[Outtro Pattern]
This is from Matilda
This is from Matilda
Matilda, Matilda, Matilda


____________________________
Requested by Amy B at OLSHCK    

Added On May 28th, 2014

SHARE

Comments

blog comments powered by Disqus

ADVERTISEMENT