Paramore Tabs

Misery Business

11 versions

TAB

            Song: Misery Business
Album: Riot
Band: Paramore

This song is just so cool

Intro/Main Riff:

eb|----------------|----------------|----------------|----------------|
Bb|----------------|----------------|----------------|----------------|
Gb|--------4h6-4h6-|----------------|--------4h6-4h6-|----------------|
Db|7-7---7---------|6-6---6-6-6---6-|7-7---7---------|4-4---4-4-4-----|
Ab|----------------|----------------|----------------|----------------|
Eb|----------------|----------------|----------------|----------------|
  |
  |
eb|----------------|----------------|----------------|----------------|
Bb|----------------|----------------|----------------|----------------|
Gb|----------------|----------------|----------------|----------------|
Db|4-4---4---------|2-2---2-2-2---2-|4-4---4---------|0-0---0-0-0-----|
Ab|4-4---4-2h4-2h4-|2-2---2-2-2---2-|4-4---4-2h4-2h4-|0-0---0-0-0-----|
Eb|4-4---4---------|2-2---2-2-2---2-|4-4---4---------|0-0---0-0-0-----|

eb|----------------|----------------|----------------|----------------|
Bb|----------------|----------------|----------------|---------4-5~---|
Gb|--------4h6-4h6-|----------------|--------4h6-4h6-|----2h4---------|
Db|7-7---7---------|6-6---6-6-6---6-|7-7---7---------|2h4-------------|
Ab|----------------|----------------|----------------|----------------|
Eb|----------------|----------------|----------------|----------------|
  |
  |
eb|----------------|----------------|----------------|----------------|
Bb|----------------|----------------|----------------|----------------|
Gb|----------------|----------------|----------------|----------------|
Db|4-4---4---------|2-2---2-2-2---2-|4-4---4---------|2-2-2-2-1-1-1-1-|
Ab|4-4---4-2h4-2h4-|2-2---2-2-2---2-|4-4---4-2h4-2h4-|2-2-2-2-1-1-1-1-|
Eb|4-4---4---------|2-2---2-2-2---2-|4-4---4---------|2-2-2-2-1-1-1-1-|

Verse:
eb|----------------|----------------|----------------|----------------|
Bb|----------------|----------------|----------------|----------------|
Gb|----------------|----------------|----------------|----------------|
Db|4-4---4---------|2-2---2-2-2---2-|4-4---4---------|2-2-2-2-1-1-1-1-|
Ab|4-4---4-2h4-2h4-|2-2---2-2-2---2-|4-4---4-2h4-2h4-|2-2-2-2-1-1-1-1-|
Eb|4-4---4---------|2-2---2-2-2---2-|4-4---4---------|2-2-2-2-1-1-1-1-|

eb|----------------|----------------|----------------|----------------|
Bb|----------------|----------------|----------------|----------------|
Gb|----------------|----------------|----------------|----------------|
Db|4-4---4---------|2-2---2-2-2---2-|4-4---4---------|2-2-2-2-1-1-1-1-|
Ab|4-4---4-2h4-2h4-|2-2---2-2-2---2-|4-4---4-2h4-2h4-|2-2-2-2-1-1-1-1-|
Eb|4-4---4---------|2-2---2-2-2---2-|4-4---4---------|2-2-2-2-1-1-1-1-|

eb|----------------|----------------|----------------|----------------|
Bb|7-----777-10x10-|7-----777-10x10-|7-----777-10x10-|7-----777-5-5---|
Gb|----------------|----------------|----------------|----------------|
Db|----------------|----------------|----------------|----------------|
Ab|----------------|----------------|----------------|----------------|
Eb|----------------|----------------|----------------|----------------|
  |
  |
eb|----------------|----------------|----------------|----------------|
Bb|----------------|----------------|----------------|----------------|
Gb|----------------|----------------|----------------|----------------|
Db|4-4---4---------|2-2---2-2-2---2-|4-4---4---------|2-2-2-2-1-1-1-1-|
Ab|4-4---4-2h4-2h4-|2-2---2-2-2---2-|4-4---4-2h4-2h4-|2-2-2-2-1-1-1-1-|
Eb|4-4---4---------|2-2---2-2-2---2-|4-4---4---------|2-2-2-2-1-1-1-1-|

eb|----------------|----------------|----------------|-------------9/-|
Bb|7-----777-10x10-|7-----777-10x10-|7-----777-10x10-|101010101212----|
Gb|----------------|----------------|----------------|----------------|
Db|----------------|----------------|----------------|----------------|
Ab|----------------|----------------|----------------|----------------|
Eb|----------------|----------------|----------------|----------------|
  |
  |
eb|----------------|----------------|----------------|----------------|
Bb|----------------|----------------|----------------|----------------|
Gb|----------------|----------------|----------------|----------------|
Db|4-4---4---------|2-2---2-2-2---2-|4-4---4---------|2-2-2-2-1-1-1-1-|
Ab|4-4---4-2h4-2h4-|2-2---2-2-2---2-|4-4---4-2h4-2h4-|2-2-2-2-1-1-1-1-|
Eb|4-4---4---------|2-2---2-2-2---2-|4-4---4---------|2-2-2-2-1-1-1-1-|

eb|----------------|----------------|
Bb|----------------|----------------|
Gb|----------------|----------------|
Db|4-4-4-4-4-4-4-4-|2-2-2-2-2-2-2/--|
Ab|4-4-4-4-4-4-4-4-|2-2-2-2-2-2-2/--|
Eb|4-4-4-4-4-4-4-4-|2-2-2-2-2-2-2/--|

Chorus:

eb|----------------|----------------|----------------|----------------|
Bb|7-7-7-7-7-7-7-7-|5-5-5-5-5-5-5-5-|7-7-7-7-7-7-7-7-|101010109-9-9-9-|
Gb|----------------|----------------|----------------|----------------|
Db|----------------|----------------|----------------|----------------|
Ab|----------------|----------------|----------------|----------------|
Eb|----------------|----------------|----------------|----------------|
  |
  |
eb|----------------|----------------|----------------|----------------|
Bb|----------------|----------------|----------------|----------------|
Gb|----------------|----------------|----------------|----------------|
Db|0-0-0-0-0-0-0-0-|7-7-7-7-7-7-7-7-|2-2-2-2-2-2-2-2-|7-7-7-7-6-6-6-6-|
Ab|0-0-0-0-0-0-0-0-|7-7-7-7-7-7-7-7-|2-2-2-2-2-2-2-2-|7-7-7-7-6-6-6-6-|
Eb|0-0-0-0-0-0-0-0-|7-7-7-7-7-7-7-7-|2-2-2-2-2-2-2-2-|7-7-7-7-6-6-6-6-|

eb|----------------|----------------|----------------|----------------|
Bb|7-7-7-7-7-7-7-7-|1010101010101010|7-7-7-7-7-7-7-7-|101010109-9-9-9-|
Gb|----------------|----------------|----------------|----------------|
Db|----------------|----------------|----------------|----------------|
Ab|----------------|----------------|----------------|----------------|
Eb|----------------|----------------|----------------|----------------|
  |
  |
eb|----------------|----------------|----------------|----------------|
Bb|----------------|----------------|----------------|----------------|
Gb|----------------|----------------|----------------|----------------|
Db|0-0-0-0-0-0-0-0-|7-7-7-7-7-7-7-7-|2-2-2-2-2-2-2-2-|7-7-7-7-6-6-6-6-|
Ab|0-0-0-0-0-0-0-0-|7-7-7-7-7-7-7-7-|2-2-2-2-2-2-2-2-|7-7-7-7-6-6-6-6-|
Eb|0-0-0-0-0-0-0-0-|7-7-7-7-7-7-7-7-|2-2-2-2-2-2-2-2-|7-7-7-7-6-6-6-6-|






Eb|----------------|----------------|----------------|----------------|
Bb|7---7---7---7---|7---7---7---7-10|9---9---9---9---|9---9---9/10----|
Gb|x---x---x---x---|x---x---x---x-x-|x---x---x---x---|x---x---x-x-----|
Db|4---4---4---4---|4---4---4---4-7-|6---6---6---6---|6---6---6/7-----|
Ab|----------------|----------------|----------------|----------------|
Eb|----------------|----------------|----------------|----------------|
  |
  |
eb|----------------|----------------|----------------|----------------|
Bb|----------------|----------------|----------------|----------------|
Gb|----------------|----------------|----------------|----------------|
Db|4---4---4---4---|4---4---4---4-7-|2---2---2---2---|2---2---6/7-----|
Ab|4---4---4---4---|4---4---4---4-7-|2---2---2---2---|2---2---6/7-----|
Eb|4---4---4---4---|4---4---4---4-7-|2---2---2---2---|2---2---6/7-----|

eb|----------------|----------------|----------------|9-------7-------|
Bb|7---7---7---7---|7---7---7---7-10|9---9---9---9---|10------9-------|
Gb|x---x---x---x---|x---x---x---x-x-|x---x---x---x---|----------------|
Db|4---4---4---4---|4---4---4---4-7-|6---6---6---6---|----------------|
Ab|----------------|----------------|----------------|----------------|
Eb|----------------|----------------|----------------|----------------|
  |
  |
eb|----------------|----------------|----------------|----------------|
Bb|----------------|----------------|----------------|----------------|
Gb|----------------|----------------|----------------|----------------|
Db|4---4---4---4---|4---4---4---4-7-|2---2---2---2---|----------------|
Ab|4---4---4---4---|4---4---4---4-7-|2---2---2---2---|----------------|
Eb|4---4---4---4---|4---4---4---4-7-|2---2---2---2---|----------------|

Order After Chorus:

Main Riff,
Verse,
Chorus,

Bridge:

eb|----------------|----------------|----------------|----------------|\
Bb|------5---------|------5---------|------5---------|----------------| |
Gb|------------6---|------------4---|------------4---|----------------| |-x4
Db|----------------|----------------|----------------|----------------| |
Ab|----------------|----------------|----------------|----------------| |
Eb|----------------|----------------|----------------|----------------|/

Solo:
eb|----------------|----------------|----------------|101010109-9-9-9-|
Bb|5h7-7-7-7-7-7-7-|5h7-7-7-7-7-7-7-|5h7-7-7-7-7-7-7-|----------------| 
Gb|----------------|----------------|----------------|----------------| 
Db|----------------|----------------|----------------|----------------| 
Ab|----------------|----------------|----------------|----------------| 
Eb|----------------|----------------|----------------|----------------|

eb|----------------|----------------|----------------|101010109-9-9-9-|
Bb|5h7-7-7-7-7-7-7-|5h7-7-7-7-7-7-7-|5h7-7-7-7-7-7-7-|----------------| 
Gb|----------------|----------------|----------------|----------------| 
Db|----------------|----------------|----------------|----------------| 
Ab|----------------|----------------|----------------|----------------| 
Eb|----------------|----------------|----------------|----------------|

eb|1212121212121212|9-9-9-9-9-9-9-9-|1010101010101010|9-9-9-9-9-9-9-9-|
Bb|----------------|----------------|----------------|----------------| 
Gb|----------------|----------------|----------------|----------------| 
Db|----------------|----------------|----------------|----------------| 
Ab|----------------|----------------|----------------|----------------| 
Eb|----------------|----------------|----------------|----------------|

eb|1212121212121212|1414141414141414|1717171719192121|16161617/-------|
Bb|----------------|----------------|----------------|----------------| 
Gb|----------------|----------------|----------------|----------------| 
Db|----------------|----------------|----------------|----------------| 
Ab|----------------|----------------|----------------|----------------| 
Eb|----------------|----------------|----------------|----------------|

eb|----------------|----------------|----------------|----------------|
Bb|----------------|----------------|----------------|----------------| 
Gb|----------------|----------------|----------------|----------------| 
Db|----------------|----------------|----------------|----------------| 
Ab|----------------|----------------|----------------|----------------| 
Eb|----------------|----------------|----------------|----------------|

eb|----------------|----------------|----------------|----------------|
Bb|----------------|----------------|----------------|----------------| 
Gb|----------------|----------------|----------------|----------------| 
Db|----------------|----------------|----------------|----------------| 
Ab|----------------|----------------|----------------|----------------| 
Eb|----------------|----------------|----------------|----------------|

Then Chorus again,

Outro:

eb|----------------|----------------|----------------|----------------|
Bb|----------------|----------------|----------------|----------------|
Gb|--------4h6-4h6-|----------------|--------4h6-4h6-|----------------|
Db|7-7---7---------|6-6---6-6-6---6-|7-7---7---------|4-4---4-4-4-----|
Ab|----------------|----------------|----------------|----------------|
Eb|----------------|----------------|----------------|----------------|
  |
  |
eb|----------------|----------------|----------------|----------------|
Bb|----------------|----------------|----------------|----------------|
Gb|----------------|----------------|----------------|----------------|
Db|4-4---4---------|2-2---2-2-2---2-|4-4---4---------|0-0---0-0-0-----|
Ab|4-4---4-2h4-2h4-|2-2---2-2-2---2-|4-4---4-2h4-2h4-|0-0---0-0-0-----|
Eb|4-4---4---------|2-2---2-2-2---2-|4-4---4---------|0-0---0-0-0-----|

eb|----------------|----------------|----------------|----------------|
Bb|----------------|----------------|----------------|----------------|
Gb|--------4h6-4h6-|----------------|--------4h6-4h6-|----------------|
Db|7-7---7---------|6-6---6-6-6---6-|7-7---7---------|4--4--4-4-------|
Ab|----------------|----------------|----------------|----------------|
Eb|----------------|----------------|----------------|----------------|
  |
  |
eb|----------------|----------------|----------------|----------------|
Bb|----------------|----------------|----------------|----------------|
Gb|----------------|----------------|----------------|----------------|
Db|4-4---4---------|2-2---2-2-2---2-|4-4---4---------|4--4--4-4-------|
Ab|4-4---4-2h4-2h4-|2-2---2-2-2---2-|4-4---4-2h4-2h4-|4--4--4-4-------|
Eb|4-4---4---------|2-2---2-2-2---2-|4-4---4---------|4--4--4-4-------|    

Added On December 16th, 2013

SHARE

Comments

blog comments powered by Disqus