Paramore Tabs

My Heart Acoustic

1 versions

TAB

            Paramore - My Heart
tabbed by dani_gr87

Intro

|--0---0---0---0---0--------------------|
|--0---0---0---0---0--------------------|
|--1---2---6---0---2--------------------|
|--2---2---6---6---2--------------------| x2
|--2---0---4---6---0--------------------|
|--0---0---0---4---0--------------------|

verse 1

|--0---0---0----------------------------|
|--0---0---0----------------------------|
|--6---4---2----------------------------|
|--6---4---2----------------------------| x6
|--4---2---0----------------------------|
|--0---0---0----------------------------|


I am finding out that maybe I was wrong
That I've fallen down and I can't do this alone

Stay with me, this is what I need, please?

chorus

|--0---0---0---0---0--------------------|
|--0---0---0---0---0--------------------|
|--1---2---6---4---2--------------------|
|--2---2---6---4---2--------------------| x2
|--2---0---4---2---0--------------------|
|--0---0---0---0---0--------------------|

Sing us a song and we'll sing it back to you
We could sing our own but what would it be without you?

verse 2

|--0---0---0----------------------------|
|--0---0---0----------------------------|
|--6---4---2----------------------------|
|--6---4---2----------------------------| x6
|--4---2---0----------------------------|
|--0---0---0----------------------------|

I am nothing now and it's been so long
Since I've heard A sound, the sound of my only hope

This time I will be listening.

chorus

|--0---0---0---0---0--------------------|
|--0---0---0---0---0--------------------|
|--1---2---6---4---2--------------------|
|--2---2---6---4---2--------------------| x2
|--2---0---4---2---0--------------------|
|--0---0---0---0---0--------------------|

Sing us a song and we'll sing it back to you
We could sing our own but what would it be without you?

Bridge

|--0---0---0---0------------------------|
|--0---0---0---0------------------------|
|--6---9---2---4------------------------|
|--6---9---2---4------------------------| till the end
|--4---7---0---2------------------------|
|--0---0---0---0------------------------|

This heart, it beats, beats for only you
This heart, it beats, beats for only you

This heart, it beats, beats for only you
My heart is yours

This heart, it beats, beats for only you
My heart is yours
(My heart, it beats for you)

This heart, it beats, beats for only you
My heart, my heart is yours
(It beats, beats for only you. My heart is your's)
This heart, it beats, beats for only you
My heart, my heart is yours
(Please don't go now, Please don't fade away)
My heart is yours
(Please don't go now, Please don't fade away)
My heart is yours
My heart is yours
(Please don't go now, Please don't fade away)
My heart is yours
My heart is...
yours
my heart is yours...

end with a - 004420

;)    

Added On December 16th, 2013

SHARE

Comments

blog comments powered by Disqus

ADVERTISEMENT