Paramore Tabs

Pressure Acoustic

3 versions

TAB

            Pressure ( Acoustic Version )
Paramore
Tuning: Drop D

			
Intro: 

Both:

e|----------------------------------------------------------------|
B|----------------------------------------------------------------|
G|-11-11-11\9-9-9--14-14-14\11-11-11--11-11-11\9-9-9--6-6-6/7-7-7-| (2x)
D|--x--x--x-x-x-x---x--x--x-x---x--x---x--x--x-x-x-x--x-x-x-x-x-x-|
A|--9--9--9\7-7-7--12-12-12\9---9--9---9--9--9\7-7-7--4-4-4/5-5-5-|
D|----------------------------------------------------------------|


Verse:

Both:

e|-------------------------------------------------|
B|-------------------------------------------------|
G|-------------------------------------------------|
D|-999-9\555-5\000-0-444-4/999-9\555-5\000-0-444-4-|
A|-999-9\555-5\000-0-444-4/999-9\555-5\000-0-444-4-|
D|-999-9\555-5\000-0-444-4/999-9\555-5\000-0-444-4-|


Refrain:

Guitar 2:

e|----------------------------------------5-|
B|------------------------------------------|
G|-11-11-11-11--9-9-9-9--7-7-7-7--6-6-6h7---|
D|--x--x--x--x--x-x-x-x--x-x-x-x--x-x-------|
A|--9--9--9--9--7-7-7-7--5-5-5-5--4-4-------|
D|------------------------------------------|

e|-----------------------------------5-|
B|-------------------------------------|
G|-11-11-11-11--9-9-9-9--7-7-7-7--6h7--|
D|--x--x--x--x--x-x-x-x--x-x-x-x-------|
A|--9--9--9--9--7-7-7-7--5-5-5-5-------|
D|-------------------------------------|

Guitar 1:

e|---------------------------------------------|
B|---------------------------------------------|
G|---------------------------------------------| (2x)
D|-9999-5555-0000-4444-9999-5555-0000-44444444-|
A|-9999-5555-0000-4444-9999-5555-0000-44444444-|
D|-9999-5555-0000-4444-9999-5555-0000-44444444-|


Chorus:

Both:

e|-------------------------------------------|
B|-------------------------------------------|
G|-77777777-77777777----------7777--11-11-11-| 
D|-77777777-77777777-77777777-7777---x--x--x-|
A|-55555555-00000000-44444444-5555---9--9--9-|
D|-55555555-00000000-44444444-5555-----------|

e|-------------------------------------|
B|-------------------------------------|
G|-77777777-77777777----------77777777-| (2x)
D|-77777777-77777777-77777777-77777777-|
A|-55555555-00000000-44444444-55555555-|
D|-55555555-00000000-44444444-55555555-|


Repeat Verse, Refrain, Chorus:


Intro:

Both:

e|----------------------------------------------------------------|
B|----------------------------------------------------------------|
G|-11-11-11\9-9-9--14-14-14\11-11-11--11-11-11\9-9-9--6-6-6/7-7-7-| (3x)
D|--x--x--x-x-x-x---x--x--x-x---x--x---x--x--x-x-x-x--x-x-x-x-x-x-|
A|--9--9--9\7-7-7--12-12-12\9---9--9---9--9--9\7-7-7--4-4-4/5-5-5-|
D|----------------------------------------------------------------|


Bridge:

Guitar 1:

e|-----------------------------------------|
B|-----------------------------------------|
G|-----------------------------------------| (2x)
D|-9999-5555-0000-4444-9999-5555-0000-4444-|
A|-9999-5555-0000-4444-9999-5555-0000-4444-|
D|-9999-5555-0000-4444-9999-5555-0000-4444-|

Guitar 2:

e|-----------9-----------------------9------------|
B|----10--------10-----10-----10--------10-----10-|
G|--------7---------7-------------7---------7-----|
D|-9-----------------------9----------------------|
A|------------------------------------------------|
D|------------------------------------------------|

e|----------9----------------9------------|
B|---10--------10-----10--------10-----10-|
G|7------7---------7------7---------7-----|
D|----------------------------------------|
A|----------------------------------------|
D|----------------------------------------|

Repeat 4x:

e|-----------9-----------------------9-|
B|----10--------10-----10-----10-------|
G|--------7---------7-------------7----| 
D|-9-----------------------9-----------|
A|-------------------------------------|
D|-------------------------------------|


Chorus:

Both:


e|-------------------------------------|
B|-------------------------------------|
G|-77777777-77777777----------77777777-| 
D|-77777777-77777777-77777777-77777777-|
A|-55555555-00000000-44444444-55555555-|
D|-55555555-00000000-44444444-55555555-|

e|-------------------------------------|
B|-------------------------------------|
G|-77777777-77777777----------77777777-|
D|-77777777-77777777-77777777-77777777-|
A|-55555555-00000000-44444444-55555555-|
D|-55555555-00000000-44444444-55555555-|

e|-------------------------------------------|
B|-------------------------------------------|
G|-77777777-77777777----------7777--11-11-11-| 
D|-77777777-77777777-77777777-7777---x--x--x-|
A|-55555555-00000000-44444444-5555---9--9--9-|
D|-55555555-00000000-44444444-5555-----------|

e|----------------------------------------------|
B|----------------------------------------------|
G|-77777777-77777777----------7777--11-11-11----|
D|-77777777-77777777-77777777-7777---x--x--x--0-|
A|-55555555-00000000-44444444-5555---9--9--9--0-|
D|-55555555-00000000-44444444-5555------------0-|


comments and suggestions?? >> cursedkiddo25@hotmail.com

friendster: cursedkiddo25@hotmail.com    

Added On December 16th, 2013

SHARE

Comments

blog comments powered by Disqus

VERSIONS

ADVERTISEMENT