Paul Weller Tabs

Sunflower

2 versions

TAB

            Sunflower Tab by Paul Weller


----------------------------------------------------------------------------
			     Sunflower - Paul Welller
----------------------------------------------------------------------------
Tabbed by: Jack The Hat
Email: jackthehat93@hotmail.co.uk

Tuning: Standard

Now if you look at the intro version its that but with the rest of the song
on it.

Intro/Chorus:
e|-----7-------7-------7-------7-------7-------7-------7-------|
B|---5---5---5---5---5---5---5---5---5---7---5---5---5---5-----|
G|-7-------7-------6-------6-------5-------5-------4-------4---|           
D|-------------------------------------------------------------|   
A|-------------------------------------------------------------|
E|-------------------------------------------------------------|

On the second one you switch the last 7 on the e, 
for a five like this:

e|-----7-------7-------7-------7-------7-------7-------5-----5-|
B|---5---5---5---5---5---5---5---5---5---7---5---5---5---5-----|
G|-7-------7-------6-------6-------5-------5-------4-------4---|           
D|-------------------------------------------------------------|   
A|-------------------------------------------------------------|
E|-------------------------------------------------------------|


Verse:       If you listen to the song,
             you will understand
   Am     E  this bit
e|--O-----x----|----------|
B|--1-----x----|----------|
G|--2-----1----|----------|
D|--2-----2---2-O---------|
A|--O-----2-------2-O-----|
E|--O-----O-----------O---|

Then into the verse before the pre is this
      C      G      A#m                      
e|----3------3-------5--|                    
B|----3------3-------5--|     
G|----5------4-------5--|Then go back to the first part of the the       
D|----5------5-------7--|verse on the first verse, if that makes         
A|----3------5-------7--|sense.                    
E|----3------3-------5--|                    


Pre:  E
e|----O-O-O-O--|
B|----O-O-O-O--|
B|----O-O-O-O--|
D|----2-2-2-2--|
A|----2-2-2-2--|
E|----O-O-O-O--|

After the second chorus, i think?, play this.And play it at the end.

e|-----9--12-9----14----12-12-----------9-12---9-----|     
B|-----9--12-9----14----12-12-x8-then---9-12---9--x2-|         
G|---------------------------------------------------|
D|---------------------------------------------------|
A|---------------------------------------------------|
E|---------------------------------------------------|

I thought it was quite hard at first so take it steady, on the intro/chorus i mean.

| /  slide up
| \  slide down
| h  hammer-on
| p  pull-off
| ~  vibrato
| +  harmonic
| x  dont play
============================================================================    

Added On December 5th, 2013

SHARE

Comments

blog comments powered by Disqus

VERSIONS

ADVERTISEMENT