Pennywise Tabs

Peaceful Day

2 versions

TAB

            Peaceful Day Tab by Pennywise


From: Rambozo 
Subject: PEACEFUL DAY by PENNYWISE

uhm.. i hope this is all right... 

intro:
e-|--------------|--------------------------------------------
B-|--------------|--------------------------------------------
G-|-7-10-10-10-7-|-7-7-7-7-10-9-9-5-5-5-7-7-10-10-12-12-14-14-
D-|-7-10-10-10-7-|-7-7-7-7-10-9-9-5-5-5-7-7-10-10-12-12-14-14-
A-|-5--8--8--8-5-|-5-5-5-5--8-7-7-3-3-3-5-5--8--8-10-10-12-12-
E-|--------------|--------------------------------------------

e-|--------------------------------------|
B-|--------------------------------------|
G-|-7-7-7-7-10-9-9-5-5-5-5-3-3-3-3-2-----|
D-|-7-7-7-7-10-9-9-5-5-5-5-3-3-3-3-2-3-3-|
A-|-5-5-5-5--8-7-7-3-3-3-3-1-1-1-1-0-3-3-|
E-|----------------------------------1-1-|

verse:
e-|----------------------------------------------------------------------
B-|----------------------------------------------------------------------
G-|-7-7-7-7-10-9-9-5-5-5-5-7-7-7-7-10-9-9-5-5-5-5-7-7-7-7-10-9-9-5-5-5-5-
D-|-7-7-7-7-10-9-9-5-5-5-5-7-7-7-7-10-9-9-5-5-5-5-7-7-7-7-10-9-9-5-5-5-5-
A-|-5-5-5-5--8-7-7-3-3-3-3-5-5-5-5--8-7-7-3-3-3-3-5-5-5-5--8-7-7-3-3-3-3-
E-|----------------------------------------------------------------------

e-|---------------|
B-|---------------|
G-|-3-3-3-3-2-----|
D-|-3-3-3-3-2-3-3-|
A-|-1-1-1-1-0-3-3-|
E-|-----------1-1-|

chorus:
e-|------------------------------------------
B-|------------------------------------------
G-|-7-7-7-7-10-10-10-10----------------------
D-|-7-7-7-7-10-10-10-10--8-8-8-8-10-10-10-10-repeat once
A-|-5-5-5-5--8--8--8--8--8-8-8-8-10-10-10-10-
E-|----------------------6-6-6-6--8--8--8--8-

e-|--------------------------------------------------------------------------
B-|--------------------------------------------------------------------------
G-|-7-7-7-7-10-10-10-10-12-12-12-12-9-9-9-9--7-7-7-7-10-10-10-10-9-9-9-9-9-9-
D-|-7-7-7-7-10-10-10-10-12-12-12-12-9-9-9-9--7-7-7-7-10-10-10-10-9-9-9-9-9-9-
A-|-5-5-5-5--8--8--8--8-10-10-10-10-7-7-7-7--5-5-5-5--8--8--8--8-7-7-7-7-7-7-
E-|--------------------------------------------------------------------------

e-|---------------------------------------------------------------------------
B-|---------------------------------------------------------------------------
G-|-7-7-7-7-10-10-10-10-7-7-7-7-10-10-10-10-7-7-7-7-10-10-10-10-3-3-3-3-2-----
D-|-7-7-7-7-10-10-10-10-7-7-7-7-10-10-10-10-7-7-7-7-10-10-10-10-3-3-3-3-2-3-3-
A-|-5-5-5-5--8--8--8--8-5-5-5-5--8--8--8--8-5-5-5-5--8--8--8--8-1-1-1-1-0-3-3-
E-|-----------------------------------------------------------------------1-1-

bridge:
e-|--------------------------------------|
B-|--------------------------------------|
G-|-7-7-7-7-10-10-10-10-3-3-3-3-5-5-5-5--|
D-|-7-7-7-7-10-10-10-10-3-3-3-3-5-5-5-5--|
A-|-5-5-5-5--8--8--8--8-1-1-1-1-3-3-3-3--|
E-|--------------------------------------|


uhm...thats about it... hmm... have fun.. i didn't really tab the rythym 
right but hey.. have fun...

rambozo jjm@nucleus.com    

Added On December 5th, 2013

SHARE

Comments

blog comments powered by Disqus

VERSIONS

ADVERTISEMENT