Phish Tabs

Free

3 versions

TAB

            E -2---------------|
B -3---------------|
G -2---------------|
D -0---------------|
A -----------------|
E -----------------|   Build up on D

Chorus

E ------10--12p10---10-----8--10p8--8----7---5--3--5p3-3--2------2----|
B --------10----------------8-----------8---7----3--------3------3----|
G --/11-----------11---/9-9--9-----9---9---7---4--4---4---2------2----|
D --------------------------------------------------------0------0----|
A --------------------------------------------------------0--3p0-0----|
E --------------------------------------------------------------------|  2X

Verse 1

E -------0-----------2--|
B -------1----3---1--3--|
G -------0---4---2---2--|
D -------2--5---3----0--|
A -0-2-3-3-----------0--|
E ----------------------| 2X

verse 2

E -------------2----|
B ---1--3------3----|
G --2--4---2-2-2----|
D -3--5----0-0-0----|
A ------------------|
E ------------------|

E -2--
B -3--
G -2--
D -0--
A ----
E ----  Hold then do all of it over again

Then

Verse 1
Verse 2
Verse 1
Verse 2

Chorus 2X

Then

For the solo use a wah pedal and some distortion and play in the D Dorian scale and do a 
of bending

I usually do stuff like

E -----------------------------|
B -10--10-----------10---13b---|
G -12b-12b-12bp10---10---12b---|
D ---------------12------------|
A -----------------------------|
E -----------------------------|

Then Chorus X 1

then jam in D Dorian (A Minor)

E -----------------------------|
B -----------------------------|
G -7-7-------------------------|
D -----------------------------|
A -5-5-------------------------|
E -----------------------------|

Then

E ------------------------------------|
B ------------------------------------|
G -777777777777777--777777777777777---|
D ------------------------------------|
A -555555555555555--555555555555555---|
E ------------------666666666666666---|

Then Chorus 4X

Then

E ------2---------|
B -1-1--3---------|
G -0-0--2---------|
D -2-2--0---------|
A -3-3------------|
E ----------------| 4X

end on D    

Added On December 16th, 2013

SHARE

Comments

blog comments powered by Disqus

VERSIONS

ADVERTISEMENT