Plain White Ts Tabs

What More Do You Want

3 versions

TAB

            What More Do You Want Tab by Plain White Ts


Artist: Plain White T's
Song: What More Do You Want
Tuning: Standard 
Tabbed by Chris Arellano


Verse Guitar:1
e|----------------------------------------------------|
B|----------------------------------------------------|
G|----------------------------------------------------|
D|----------------------------------------------------|x8
A|--66----88----8/9---66------------------------------|
E|----66-----66---------------------------------------|

Chorus:Guitar 1
e|----------------------------------------------------|
B|----------------------------------------------------|
G|-----------------------------------r----------------|
D|-----------------------------------e----------------|
A|-----------------------------------s----------------|
E|----5-6-7----5-6-7--------5-6-7----t----------------|

e|----------------------------------------------------|
B|----------------------------------------------------|
G|---------------------------------77-999-------------|
D|---44-333-----66-9-88-----44-333--------------------|
A|----------------------------------------------------|
E|----------------------------------------------------|

Verse:Guitar 2
e|----------------------------------------------------|
B|----------------------------------------------------|
G|----------------------------------------------------|
D|---44-333--66-9-88--44-333--66-9-88-----------------|
A|----------------------------------------------------|
E|----------------------------------------------------|

e|----------------------------------------------------|
B|----------------------------------------------------|
G|---------------------------77-999-------------------|
D|--44-333-66-9-88--44-333----------------------------|
A|----------------------------------------------------|
E|----------------------------------------------------|

Chorus:Guitar 2
e|------66---------99-----------66-------99-----------|
B|---7----7-----7----7--------7---7----7---7----------|
G|--8-8----8---8-8----9------8-8---8--8-8---8---------|
D|----------------------------------------------------|
A|----------------------------------------------------|
E|----------------------------------------------------|

e|-----66----------------------------------------------|
B|--7----7---------------------------------------------|
G|-8-8----8-r------------------------------------------|
D|----------e------------------------------------------|
A|----------s------------------------------------------|
E|----------t------------------------------------------|

Solo:guitar1
e|----------------------------------------------------|
B|----------------------------------------------------|
G|--------------------------------r-------------------|
D|--------------------------------e-------------------|
A|--------------------------------s-------------------|
E|-5-6-7---5-6-7---5-6-7---5-6-7--t-------------------|

Solo:Guitar 2
e|------66---------99-----------66--------6-5-4-2-----|
B|---7----7-----7----7--------7---7-----7-------------|
G|--8-8----8---8-8----9------8-8---8---8-8------------|
D|----------------------------------------------------|
A|----------------------------------------------------|
E|----------------------------------------------------|


e|----66--------6-------------------------------------|
B|--7---7-----7----7----7-----------------------------|
G|-8-8---8---8-8--8-8---8--let-ring-------------------|
D|----------------------------------------------------|
A|----------------------------------------------------|
E|----------------------------------------------------|


Order:
Verse
Chorus
Verse
Chorus
Solo
Verse
Chorus
Part of Verse    

Added On December 5th, 2013

SHARE

Comments

blog comments powered by Disqus

VERSIONS

ADVERTISEMENT