Pop Evil Tabs

Monster You Made Me

1 versions

TAB

            D#]-----------------------------------------------[
A#]-----------------------------------------------[
F#]-----------------------------------------------[
C#]-------2-0---0-----------9------9--------------[
G#]----0---------0--------7--7---7--7-------------[
C#]---4-------0---------7------6------------------[

D#]-----------------------------------------------[
A#]-----------------------------------------------[
F#]-----------------------------------------------[
C#]---0----0--------------------------------------[
G#]----0----0-------------------------------------[
C#]----0----0-------------------------------------[

D#]-----------------------------------------------[
A#]-----------------------------------------------[
F#]-----------------------------------------------[
C#]---2--2--2--2--2--2----------------------------[
G#]---2--2--2--2--2--2----------------------------[
C#]---2--2--2--2--2--2----------------------------[PM.

D#]-----------------------------------------------[
A#]-----------------------------------------------[
F#]-------7-------9-------------------------------[
C#]---4---7---7---9-------------------------------[
G#]---4---5---7---7-------------------------------[
C#]---4-------7-----------------------------------[

D#]-----------------------------------------------[
A#]-----------------------------------------------[
F#]-----------------------------------------------[
C#]---4-4--2-2--7-7--7-7--------------------------[
G#]---4-4--2-2--7-7--7-7--------------------------[
C#]---4-4--2-2--7-7--5-5--------------------------[

THIS IS MY FIRST TAB. HOPE IT HELPS.    

Added On December 16th, 2013

SHARE

Comments

blog comments powered by Disqus

ADVERTISEMENT