Porcupine Tree Tabs

Open Car

4 versions

TAB

            Open Car Tab by Porcupine Tree


Porcupine tree
Arriving somewhere, live
Open Car

Dropped D tuning

This is my first tab, but it is 100% right^^ Steven Wilson is a musical Genius and 
Tree is a great band^^ Enjoy.

Intro and verse:

--------------------------------------------------------------------------|
--------------------------------------------------------------------------|
--------------------------------------------------------------------------|
--------------------------------------------------------------------------|
--------------------------------------------------------------------------|
--2-2-0-3---2-2-0-3---2-2-0-3-3---2-2-0-3---2-2-0-3---2-2-0-2-3-0---------|

--------------------------------------------------------------------------|
--------------------------------------------------------------------------|
--------------------------------------------------------------------------|
--------------------------------------------------------------------------|
--------------------------------------------------------------------------|
--2-2-0-3---2-2-0-3---2-2-0-3-3---2-2-0-3---2-2-0-3---2-2-0-2-3-0---------| x2
Nothing like like this.....


--------------------------------------------------------------------------|
--------------------------------------------------------------------------|
--------------------------------------------------------------------------|
---------------------------------------------------------------3----------|
--0-5-(3)-(5)-3---(2)-(2)-0-2-3-0------5-----3--------5------3---5--------|
--0----3---5---2-0-2---2--0-2-3-0----0---3-5---2-0-2-----3-5--------------| x2


--------------------------------------------------------------------------|
--------------------------------------------------------------------------|
--------------------------------------------------------------------------|
--------------------------------------------------------------------------|
--------------------------------------------------------------------------|
--2-2-0-3---2-2-0-3---2-2-0-3-3---2-2-0-3---2-2-0-3---2-2-0-2-3-0---------| x2

--------------------------------------------------------------------------|
--------------------------------------------------------------------------|
--------------------------------------------------------------------------|
-------------------------------------------------------------3------------|
--0-5-(3)-(5)-3---(2)-(2)-0-2-3-0-----5---3--------5-----3-5--------------|
--0----3---5---2-0-2---2--0-2-3-0----0-3-5-2-0-2-----3-5------------------| x2


The only minus about this tab is that im not sure about the chords i know there is a D
there but nothing more^^


------------------------------------------------------------------------|
------------------------------------------------------------------------|
------------------------------------------------------------------------|
--7---5---3-----3-2-----2-0------0--------5---3----3--2-----------------|
--5---3---1-----1-0-----0-0------0--------3---1----1--0-----------------|
--------------------------0------0--------------------------------------|

--------------------------------------------------------------------------|
--------------------------------------------------------------------------|
--------------------------------------------------------------------------|
--------------------------------------------------------------------------|
--------------------------------------------------------------------------|
--2-2-0-3---2-2-0-3---2-2-0-3-3---2-2-0-3---2-2-0-3---2-2-0-2-3-0---------| x2


--------------------------------------------------------------------------|
--------------------------------------------------------------------------|
--------------------------------------------------------------------------|
-------------------------------------------------------------3------------|
--0-5-(3)-(5)-3---(2)-(2)-0-2-3-0-----5---3--------5-----3-5--------------|
--0----3---5---2-0-2---2--0-2-3-0----0-3-5-2-0-2-----3-5------------------| x2


Chords


------------------------------------------------------------------------|
------------------------------------------------------------------------|
------------------------------------------------------------------------|
--7---5---3-----3-2-----2-0------0--------5---3----3--2-----2--0--------|
--5---3---1-----1-0-----0-0------0--------3---1----1--0-----0--0--------|
--------------------------0------0-----------------------------0--------|


-------------------------------------------------------|
-------------------------------------------------------|
-------------------------------------------------------|
-0-----5--3-----3--2-----------------------------------|
-0-----3--1-----1--0-----------------------------------|
-0-----------------------------------------------------|

New line of chords and then

The End    

Added On December 5th, 2013

SHARE

Comments

blog comments powered by Disqus

VERSIONS

ADVERTISEMENT