Porcupine Tree Tabs

Wedding Nails

3 versions

TAB

            Wedding Nails Tab by Porcupine Tree


Tabbed by Chris Youdale

Standard tuning
pm = palm mute
p = pull off
h = hammer on

e|------------------------|----------------------|------------------------|
B|------------------------|----------------------|------------------------|
G|------------------------|----------------------|------------------------|
D|----7-7p5---5---5---5h7-|----7-7p5---5---5---5-|----7-7p5---5---5---5h7-|
A|--0-------6---6---6-----|--0-------6---6---6---|--0-------6---6---6-----|
E|------------------------|----------------------|------------------------|

p.m -       -   -   -        -       -   -   -      -       -   -   -

e|--------------------|------------------------|----------------------|
B|--------------------|------------------------|----------------------|
G|------------------6-|------------------------|----------------------|
D|----7-7p5---5---5---|----7-7p5---5---5---5h7-|----7-7p5---5---5---5-|
A|--0-------6---6-----|--0-------6---6---6-----|--0-------6---6---6---|
E|--------------------|------------------------|----------------------|
                (hold)
p.m -       -           -       -   -   -         -       -   -   -

e|------------------------|-------------|------------------------|
B|------------------------|-------------|------------------------|
G|------------------------|-------------|------------------------|
D|----7-7p5---5---5---5h7-|-2-3-6-5-8-7-|----7-7p5---5---5---5h7-|
A|--0-------6---6---6-----|-2-3-6-5-8-7-|--0-------6---6---6-----|
E|------------------------|-0-1-4-3-6-5-|------------------------|

p.m -       -   -   -                      -       -   -   -

e|----------------------|------------------------|--------------------|
B|----------------------|------------------------|--------------------|
G|----------------------|------------------------|------------------6-|
D|----7-7p5---5---5---5-|----7-7p5---5---5---5h7-|----7-7p5---5---5---|
A|--0-------6---6---6---|--0-------6---6---6-----|--0-------6---6-----|
E|----------------------|------------------------|--------------------|
                                                                (hold)
p.m -       -   -   -      -       -   -   -        -       -

e|------------------------|----------------------|------------------------|
B|------------------------|----------------------|------------------------|
G|------------------------|----------------------|------------------------|
D|----7-7p5---5---5---5h7-|----7-7p5---5---5---5-|----7-7p5---5---5---5h7-|
A|--0-------6---6---6-----|--0-------6---6---6---|--0-------6---6---6-----|
E|------------------------|----------------------|------------------------|

p.m -       -   -   -        -       -   -   -      -       -   -   -

e|--------------------|
B|--------------------|
G|------------------6-|
D|----7-7p5---5---5---|
A|--0-------6---6-----|
E|--------------------|
                (hold)
p.m -       -

e|-------------------------------------|----------------------|
B|-10-10-10-11-11-11-11-10-10-10-11-11-|-14-14-14-15-15-15-15-|
G|-x--x--x--x--x--x--x--x--x--x--x--x--|-x--x--x--x--x--x--x--|
D|-7--7--7--8--8--8--8--7--7--7--8--8--|-11-11-11-12-12-12-12-|
A|-------------------------------------|----------------------|
E|-------------------------------------|----------------------|

e|----------------|-------------------------------------|
B|-14-14-14-15-15-|-17-17-17-18-18-18-18-17-17-17-18-18-|
G|-x--x--x--x--x--|-x--x--x--x--x--x--x--x--x--x--x--x--|
D|-11-11-11-12-12-|-14-14-14-15-15-15-15-14-14-14-15-15-|
A|----------------|-------------------------------------|
E|----------------|-------------------------------------|

e|----------------|
B|-15-16-15-16-15-|
G|-x--x--x--x--x--|
D|-12-13-12-13-12-|
A|----------------|
E|----------------|

e|-------------------------------------|----------------------|
B|-10-10-10-11-11-11-11-10-10-10-11-11-|-14-14-14-15-15-15-15-|
G|-x--x--x--x--x--x--x--x--x--x--x--x--|-x--x--x--x--x--x--x--|
D|-7--7--7--8--8--8--8--7--7--7--8--8--|-11-11-11-12-12-12-12-|
A|-------------------------------------|----------------------|
E|-------------------------------------|----------------------|

e|----------------|-------------------------------------|
B|-14-14-14-15-15-|-17-17-17-18-18-18-18-17-17-17-18-18-|
G|-x--x--x--x--x--|-x--x--x--x--x--x--x--x--x--x--x--x--|
D|-11-11-11-12-12-|-14-14-14-15-15-15-15-14-14-14-15-15-|
A|----------------|-------------------------------------|
E|----------------|-------------------------------------|

e|----------------|
B|-15-16-15-16-15-|
G|-x--x--x--x--x--|
D|-12-13-12-13-12-|
A|----------------|
E|----------------|

e|-------------------------------------------------|
B|----------------------------------------------10-|
G|--------------------------------8-7h8p7-----8----|
D|-7h8----7h8----------7h8-7h8------------8-7------|
A|-----10-----10-10-10---------10------------------|
E|-------------------------------------------------|

e|-------------------------------------------------|
B|----------------------------------------------10-|
G|--------------------------------8-7h8p7-----8----|
D|-7h8----7h8----------7h8-7h8------------8-7------|
A|-----10-----10-10-10---------10------------------|
E|-------------------------------------------------|

e|-------------------------------------------------|
B|----------------------------------------------10-|
G|--------------------------------8-7h8p7-----8----|
D|-7h8----7h8----------7h8-7h8------------8-7------|
A|-----10-----10-10-10---------10------------------|
E|-------------------------------------------------|

e|-------------------------------------------------|
B|----------------------------------------------10-|
G|--------------------------------8-7h8p7-----8----|
D|-7h8----7h8----------7h8-7h8------------8-7------|
A|-----10-----10-10-10---------10------------------|
E|-------------------------------------------------|

e|-------------------------------------|----------------------|
B|-10-10-10-11-11-11-11-10-10-10-11-11-|-14-14-14-15-15-15-15-|
G|-x--x--x--x--x--x--x--x--x--x--x--x--|-x--x--x--x--x--x--x--|
D|-7--7--7--8--8--8--8--7--7--7--8--8--|-11-11-11-12-12-12-12-|
A|-------------------------------------|----------------------|
E|-------------------------------------|----------------------|

e|----------------|-------------------------------------|
B|-14-14-14-15-15-|-17-17-17-18-18-18-18-17-17-17-18-18-|
G|-x--x--x--x--x--|-x--x--x--x--x--x--x--x--x--x--x--x--|
D|-11-11-11-12-12-|-14-14-14-15-15-15-15-14-14-14-15-15-|
A|----------------|-------------------------------------|
E|----------------|-------------------------------------|

e|----------------|
B|-15-16-15-16-15-|
G|-x--x--x--x--x--|
D|-12-13-12-13-12-|
A|----------------|
E|----------------|

e|-------------------------------------|----------------------|
B|-10-10-10-11-11-11-11-10-10-10-11-11-|-14-14-14-15-15-15-15-|
G|-x--x--x--x--x--x--x--x--x--x--x--x--|-x--x--x--x--x--x--x--|
D|-7--7--7--8--8--8--8--7--7--7--8--8--|-11-11-11-12-12-12-12-|
A|-------------------------------------|----------------------|
E|-------------------------------------|----------------------|

e|----------------|-------------------------------------|
B|-14-14-14-15-15-|-17-17-17-18-18-18-18-17-17-17-18-18-|
G|-x--x--x--x--x--|-x--x--x--x--x--x--x--x--x--x--x--x--|
D|-11-11-11-12-12-|-14-14-14-15-15-15-15-14-14-14-15-15-|
A|----------------|-------------------------------------|
E|----------------|-------------------------------------|

e|----------------|
B|-15-16-15-16-15-|
G|-x--x--x--x--x--|
D|-12-13-12-13-12-|
A|----------------|
E|----------------|

e|------------------------|----------------------|------------------------|
B|------------------------|----------------------|------------------------|
G|------------------------|----------------------|------------------------|
D|----7-7p5---5---5---5h7-|----7-7p5---5---5---5-|----7-7p5---5---5---5h7-|
A|--0-------6---6---6-----|--0-------6---6---6---|--0-------6---6---6-----|
E|------------------------|----------------------|------------------------|

p.m -       -   -   -        -       -   -   -      -       -   -   -

e|-------------|------------------------|----------------------|
B|-------------|------------------------|----------------------|
G|-------------|------------------------|----------------------|
D|-2-3-6-5-8-7-|----7-7p5---5---5---5h7-|----7-7p5---5---5---5-|
A|-2-3-6-5-8-7-|--0-------6---6---6-----|--0-------6---6---6---|
E|-0-1-4-3-6-5-|------------------------|----------------------|

p.m               -       -   -   -        -       -   -   -

e|--------------------|
B|--------------------|
G|------------------6-|
D|----7-7p5---5---5---|
A|--0-------6---6-----|
E|--------------------|
                (hold)
p.m -       -

e|------------------------|----------------------|------------------------|
B|------------------------|----------------------|------------------------|
G|------------------------|----------------------|------------------------|
D|----7-7p5---5---5---5h7-|----7-7p5---5---5---5-|----7-7p5---5---5---5h7-|
A|--0-------6---6---6-----|--0-------6---6---6---|--0-------6---6---6-----|
E|------------------------|----------------------|------------------------|

p.m -       -   -   -        -       -   -   -      -       -   -   -

e|-------------|-------------|-------|-------------|-------------|
B|-------------|-------------|-------|-------------|-------------|
G|-------------|-------------|-------|-------------|-------------|
D|-2-3-6-5-8-7-|-2-3-6-5-8-7-|-6-5-3-|-2-3-6-5-8-7-|-2-3-6-5-8-7-|
A|-2-3-6-5-8-7-|-2-3-6-5-8-7-|-6-5-3-|-2-3-6-5-8-7-|-2-3-6-5-8-7-|
E|-0-1-4-3-6-5-|-0-1-4-3-6-5-|-4-3-1-|-0-1-4-3-6-5-|-0-1-4-3-6-5-|

e|----------|
B|----------|
G|----------|
D|-6-5--3-2-|      This riff is repeated for a while, with some widdly
A|-6-5--3-2-|      guitar wierdness that i haven't worried about tabbing
E|-4-3--1-0-|      it's pretty easy to come up with your own lead riffs here


After this section make sure you realise that it goes back into the riffs that have been 
before, but they're all A SEMITONE LOWER! If you try to play the riffs exactly the same 
before it won't sound right - therefore:


e|-------------------------------|-------------------------------------|
B|-9-9-9-10-10-10-10-9-9-9-10-10-|-13-13-13-14-14-14-14-13-13-13-14-14-|
G|-x-x-x-x--x--x--x--x-x-x-x--x--|-x--x--x--x--x--x--x--x--x--x--x--x--|
D|-6-6-6-7--7--7--7--6-6-6-7--7--|-10-10-10-11-11-11-11-10-10-10-11-11-|
A|-------------------------------|-------------------------------------|
E|-------------------------------|-------------------------------------|

e|-------------------------------------|----------------|
B|-16-16-16-17-17-17-17-16-16-16-17-17-|-14-15-14-15-14-|
G|-x--x--x--x--x--x--x--x--x--x--x--x--|-x--x--x--x--x--|
D|-13-13-13-14-14-14-14-13-13-13-14-14-|-11-12-11-12-11-|
A|-------------------------------------|----------------|
E|-------------------------------------|----------------|

e|-------------------------------|-------------------------------------|
B|-9-9-9-10-10-10-10-9-9-9-10-10-|-13-13-13-14-14-14-14-13-13-13-14-14-|
G|-x-x-x-x--x--x--x--x-x-x-x--x--|-x--x--x--x--x--x--x--x--x--x--x--x--|
D|-6-6-6-7--7--7--7--6-6-6-7--7--|-10-10-10-11-11-11-11-10-10-10-11-11-|
A|-------------------------------|-------------------------------------|
E|-------------------------------|-------------------------------------|

e|-------------------------------------|----------------|
B|-16-16-16-17-17-17-17-16-16-16-17-17-|-14-15-14-15-14-|
G|-x--x--x--x--x--x--x--x--x--x--x--x--|-x--x--x--x--x--|
D|-13-13-13-14-14-14-14-13-13-13-14-14-|-11-12-11-12-11-|
A|-------------------------------------|----------------|
E|-------------------------------------|----------------|

e|-------------------------------------------|
B|-----------------------------------------9-|
G|---------------------------7-6h7p6-----7---|
D|-6h7---6h7-------6h7-6h7-----------7-6-----|
A|-----9-----9-9-9---------9-----------------|
E|-------------------------------------------|

e|-------------------------------------------|
B|-----------------------------------------9-|
G|---------------------------7-6h7p6-----7---|
D|-6h7---6h7-------6h7-6h7-----------7-6-----|
A|-----9-----9-9-9---------9-----------------|
E|-------------------------------------------|

e|-------------------------------------------|
B|-----------------------------------------9-|
G|---------------------------7-6h7p6-----7---|
D|-6h7---6h7-------6h7-6h7-----------7-6-----|
A|-----9-----9-9-9---------9-----------------|
E|-------------------------------------------|

e|-------------------------------------------|
B|-----------------------------------------9-|
G|---------------------------7-6h7p6-----7---|
D|-6h7---6h7-------6h7-6h7-----------7-6-----|
A|-----9-----9-9-9---------9-----------------|
E|-------------------------------------------|

e|-------------------------------|-------------------------------------|
B|-9-9-9-10-10-10-10-9-9-9-10-10-|-13-13-13-14-14-14-14-13-13-13-14-14-|
G|-x-x-x-x--x--x--x--x-x-x-x--x--|-x--x--x--x--x--x--x--x--x--x--x--x--|
D|-6-6-6-7--7--7--7--6-6-6-7--7--|-10-10-10-11-11-11-11-10-10-10-11-11-|
A|-------------------------------|-------------------------------------|
E|-------------------------------|-------------------------------------|

e|-------------------------------------|----------------|
B|-16-16-16-17-17-17-17-16-16-16-17-17-|-14-15-14-15-14-|
G|-x--x--x--x--x--x--x--x--x--x--x--x--|-x--x--x--x--x--|
D|-13-13-13-14-14-14-14-13-13-13-14-14-|-11-12-11-12-11-|
A|-------------------------------------|----------------|
E|-------------------------------------|----------------|

e|-------------------------------|-------------------------------------|
B|-9-9-9-10-10-10-10-9-9-9-10-10-|-13-13-13-14-14-14-14-13-13-13-14-14-|
G|-x-x-x-x--x--x--x--x-x-x-x--x--|-x--x--x--x--x--x--x--x--x--x--x--x--|
D|-6-6-6-7--7--7--7--6-6-6-7--7--|-10-10-10-11-11-11-11-10-10-10-11-11-|
A|-------------------------------|-------------------------------------|
E|-------------------------------|-------------------------------------|

e|-------------------------------------|----------------|
B|-16-16-16-17-17-17-17-16-16-16-17-17-|-14-15-14-15-14-|
G|-x--x--x--x--x--x--x--x--x--x--x--x--|-x--x--x--x--x--|
D|-13-13-13-14-14-14-14-13-13-13-14-14-|-11-12-11-12-11-|
A|-------------------------------------|----------------|
E|-------------------------------------|----------------|

Outro

e|------------------|------------------|------------------|----------------|
B|------------------|------------------|------------------|----------------|
G|------------------|------------------|------------------|------------7-6-|
D|------------------|------------------|------------------|------------7-6-|
A|------------------|------------------|------------------|------------5-4-|
E|-4-4-2-4--7--2--3-|-4-4-2-4--7--2--3-|-4-4-2-4--7--2--3-|-4-4-2-4--7-----|

Repeat a few times and end by holding last power chord... phew, that was fun wasn't it 
Hope you enjoy the tab :)

Chris    

Added On December 16th, 2013

SHARE

Comments

blog comments powered by Disqus

VERSIONS

ADVERTISEMENT