Powderfinger Tabs

Celebrity Head

1 versions

TAB

            Celebrity Head Tab by Powderfinger


Intro - Verse:
E-|---------------------------|-------------------------------|-
B-|---------------------------|-------------------------------|-
G-|-6-6---6-6-6---6-6---6-6-6-|-6-6---6-6-6---7-7-7-7-7-7-7-7-|-(Intro X 2)
D-|-6-6---6-6-6---5-5---5-5-5-|-6-6---6-6-6---7-7-7-7-7-7-7-7-|-(Verse X 4)
A-|-4-4---4-4-4---4-4---4-4-4-|-4-4---4-4-4---5-5-5-5-5-5-5-5-|-
E-|---------------------------|-------------------------------|-

Pre Chorus
E-|-----------|-
B-|-9----(14)-|-
G-|-10--------|- (guitar 2 can play the high note)
D-|-11--------|-
A-|-11--------|-
E-|-9---------|-

Chorus
E-|-------------------------|-
B-|-------------------------|-
G-|-13--12--11--9------6----|- (1st Chorus X 4)
D-|-13--12--11--9---7--6--4-|- (2nd Chorus X 6)
A-|-11--10--9---7---7--4--4-|-
E-|-----------------5-----2-|-

Outro
E-|-----------|-
B-|-9----(14)-|-
G-|-10--------|-
D-|-11--------|-
A-|-11--------|-
E-|-9---------|-    

Added On December 5th, 2013

SHARE

Comments

blog comments powered by Disqus

ADVERTISEMENT