Quarashi Tabs

Baseline

2 versions

TAB

            Baseline Tab by Quarashi


Guitartabs for Baseline

Baseline
Quarashi
Jinx


Riff 1:
-------------------------------------------
-------------------------------------------
---9---7---7---6---5---9---7---7---6---5---
-------------------------------------------
-------------------------------------------
-------------------------------------------

Riff 2:
-------------------------
-------------------------
-------------------------
---2-2-2-2-2-2-2-2-2-2---
---0-0-0-0-0-0-0-0-0-0---
-------------------------

Chorus:
---------------------------------
---------------------------------
---------------------------------
---------------------------------
---------------------------------
---0---0-3-0-4-0-3---4-3-2-1-0---

this is taken from the quarashi web site and shut be 100% corecct    

Added On December 5th, 2013

SHARE

Comments

blog comments powered by Disqus

VERSIONS

ADVERTISEMENT