TAB

            I Never Came Tab by Queens Of The Stone Age


This song is called "I Never Came" off of Lullabies to Paralyze. great song, it's slow,
mellon collie QOTSA if you will

2 Steps Down

Verse
|-------------------------------------------------------------------------|
|-------------------------------------------------------------------------|
|-------------------------------------------------------------------------|  
|-13-13-13-13-13-13-13-13-10-10-10-10-10-10-8-10-11-11-11-11-11-11-11-11--|
|-11-11-11-11-11-11-11-11--8--8--8--8--8--8-6--8--9--9--9--9--9--9--9--9--|
|-------------------------------------------------------------------------|

|------------------|
|------------------|
|------------------|                                                        
|-9-9-9-9-9-9-9-9--|
|-9-9-9-9-9-9-9-9--|
|-7-7-7-7-7-7-7-7--|

Chorus
|--------------------------------------------------------------------------|
|--------------------------------------------------------------------------|
|--------------------------------------------------------------------------|
|-13-13-13-13-13-13-13-13-9-9-9-9-9-9-9-9-6-6-6-6-6-6-6-6-6-6-6-6-6-6-6-6--|
|-11-11-11-11-11-11-11-11-7-7-7-7-7-7-7-7-4-4-4-4-4-4-4-4-6-6-6-6-6-6-6-6--|
|---------------------------------------------------------4-4-4-4-4-4-4-4--|

After Chorus, to verse rhythm play this Lead
|----------------------------------|
|---------------7-6p4---4---4---2--|
|-----4-6p4---4-------6---4---3----|                                        
|-4h6-------6----------------------|
|----------------------------------|
|----------------------------------| 3x

|---------------7-6p4---4---4------|
|---------------------7---6-----6--|
|-----4-6p4---4---------------6----|                                        
|-4h6-------6----------------------|
|----------------------------------|
|----------------------------------| 1x    

Added On December 5th, 2013

SHARE

Comments

blog comments powered by Disqus