TAB

            Note: This is my first tab ever. It might not be 100% accurate, but only parts of the 
tabs for this song sound right (to me atleast), so here's how I play it.
----------------------------------------------------------------

Title: In the Fade
Album: Rated R
Artist: Queens of the Stone Age

Tuning: Standard (EADGBe)

~ let ring
b bend

Then there's lots of other stuff like pulling, hammer etc which I've left out. You'll 
the feel for HOW to play the notes anyway..


INTRO
e|-------------------------------------|
B|-------------------------------------|
G|-------------------------------------|
D|-------------7b----------------------|
A|--7b-------------9~------------------|
E|------9~-----------------------------| (x6)

VERSE - should be delay on it, but you could play each note 3 times. It's probably just 
string that's played, but this fills it up a bit I think.
e|-------------------------------------|
B|--9--12------------------------------|
G|--9--11----14--18--------------------|
D|-----------14--16--------------------|
A|-------------------------------------|
E|-------------------------------------|(x4)

Otherwise:
B|-9--12-----------|
G|----------14--18-|

BRIDGE
e|---------------------------------------------|
B|---------------------------------------------|
G|------------------9-9-9-6-6-6-6-6------------|
D|--7-7-7-7-7-7-7-7-9-9-9-6-6-6-6-6------------|
A|--7-7-7-7-7-7-7-7-7-7-7-4-4-4-4-4------------|
E|--5-5-5-5-5-5-5-5----------------------------| (x4)


CHORUS
e|---------------------------------------------|
B|---------------------------------------------|
G|------9---13-9-------------------------------|
D|-9-11----------11-9-11-9-11------------------|  _
A|---------------------------------------|  ---|
E|---------------------------------------|  ---|
                                             | (x2)
E|---------------------------------------|  ---|
B|---------------------------------------|  ---|
G|-9-9-9---------------------------------------|
D|-9-9-9---11-11-11-11-11----------------------|
A|-7-7-7---11-11-11-11-11----------------------|
E|---------9--9--9--9--9-----------------------|


E|--------------------------------------|
B|---------------12---------------------|
G|------9---13-9----13-14-13------------|
D|-9-11---------------------------------|
A|--------------------------------------|
E|--------------------------------------|

E|---------------------------------------|
B|---------------------------------------|
G|-9-9-9---------------------------------|
D|-9-9-9---11-11-11-11-11----------------|
A|-7-7-7---11-11-11-11-11----------------|
E|---------9--9--9--9--9-----------------|

e|---------------------------------------|
B|---------------------------------------|
G|------9---13-9-------------------------|
D|-9-11----------11-9-11-9-11------------|
A|---------------------------------------|
E|---------------------------------------|

E|---------------------------------------|
B|---------------------------------------|
G|-9-9-9---------------------------------|
D|-9-9-9---11-11-11-11-11----------------|
A|-7-7-7---11-11-11-11-11----------------|
E|---------9--9--9--9--9-----------------|


VERSE

e|-------------------------------------|
B|--9--12------------------------------|
G|--9--11----14--11--------------------|
D|-----------14--11--------------------|
A|-------------------------------------|
E|-------------------------------------| (x1)

Otherwise:
B|-9--12-----------|
G|----------14--11-|


e|-------------------------------------|
B|--9--12------------------------------|
G|--9--11----14--11--------------------|
D|-----------14--11--------------------|
A|-------------------------------------|
E|-------------------------------------|

Otherwise:
B|-9--12-----------|
G|----------14--18-|

BRIDGE
e|---------------------------------------------|
B|---------------------------------------------|
G|------------------9-9-9-6-6-6-6-6------------|
D|--7-7-7-7-7-7-7-7-9-9-9-6-6-6-6-6------------|
A|--7-7-7-7-7-7-7-7-7-7-7-4-4-4-4-4------------|
E|--5-5-5-5-5-5-5-5----------------------------| (x4)

CHORUS
e|---------------------------------------------|
B|---------------------------------------------|
G|------9---13-9-------------------------------|
D|-9-11----------11-9-11-9-11------------------|  _
A|---------------------------------------|  ---|
E|---------------------------------------|  ---|
                                             | (x2)
E|---------------------------------------|  ---|
B|---------------------------------------|  ---|
G|-9-9-9---------------------------------------|
D|-9-9-9---11-11-11-11-11----------------------|
A|-7-7-7---11-11-11-11-11----------------------|
E|---------9--9--9--9--9-----------------------|

E|--------------------------------------|
B|---------------12---------------------|
G|------9---13-9----13-14-13------------|
D|-9-11---------------------------------|
A|--------------------------------------|
E|--------------------------------------|

E|---------------------------------------|
B|---------------------------------------|
G|-9-9-9---------------------------------|
D|-9-9-9---11-11-11-11-11----------------|
A|-7-7-7---11-11-11-11-11----------------|
E|---------9--9--9--9--9-----------------|

e|---------------------------------------|
B|---------------------------------------|
G|------9---13-9-------------------------|
D|-9-11----------11-9-11-9-11------------|
A|---------------------------------------|
E|---------------------------------------|

E|---------------------------------------|
B|---------------------------------------|
G|-9-9-9---------------------------------|
D|-9-9-9---11-11-11-11-11----------------|
A|-7-7-7---11-11-11-11-11----------------|
E|---------9--9--9--9--9-----------------|

OUTRO
E|--------|
B|--------|
G|--------|
D|--11----|
A|--11----|
E|--9-----| 15 times then:

E|--------|
B|--------|
G|--------|
D|---9----|
A|---9----|
E|--\7/---| Basically play the D 15 times, then slide down to B and back to D quickly. 
is repeated 8 times, though it fades out so you dont get everything.


Think that's it.. hope that works out fine for you!    

Added On December 16th, 2013

SHARE

Comments

blog comments powered by Disqus

VERSIONS

ADVERTISEMENT