TAB

            I've been looking around, and I can't seem to find a tab for this song that's easy on 
fingers, so I decided to make my own...
It seems pretty close to perfect, I'm not popsitive it is %100 percent accurate, though. 
is my first tab, as well, so bear with me...

       Q    Q     Q    Q        Q    Q     Q     Q
C ||--12---------12---------|--12---------12-----------|
G ||--12---------12---------|--12---------12-----------|
D#||--12---------12---------|--12---------12-----------|
A#||---9----------9---------|---9----------9-----------|
F ||------------------------|--------------------------|
C ||------------------------|-------------------10\----|


  E  E   E  E   E.   S E  E      E  E   E.   S E  E   Q
-----------------------------|------------------------------|
--------10-----10p---8-------|--10-----10p---8--------------|
---------0------0------9-----|---9------9------9------------|
---------0------9------9-----|---9------9------9------------|
-----------------------------|------------------------------|
--0--------------------------|-----------------------10\----|


  E  E   E  E   E.   S E  E      E  E   E.   S E  E   Q
-----------------------------|------------------------------|
--------10-----10p---8-------|--10-----10p---8--------------|
---------0------0------9-----|---9------9------9------------|
---------0------9------9-----|---9------9------9------------|
-----------------------------|------------------------------|
--0--------------------------|-----------------------10\----|


  E  E   E  E   E.   S E  E      E  E   E.    S E  E   Q
-----------------------------|-------------------------------|
--------10-----10p---8-------|--10-----10br---L-L------------|
---------0------0------9-----|---9------9--------------------|
---------0------9------9-----|---9------9--------------------|
-----------------------------|-------------------------------|
--0--------------------------|------------------------10\----|


                                        NH
  E  E   E  E   E.   S E  E     E  E    H.
-----------------------------|--7--------------------|
--------10-----10p---8-------|--7-----7------------|
---------9------9------9-----|--------7------------|
---------9------9------9-----|-----------------------|
-----------------------------|-----------------------|
--0--------------------------|-----------------------|


                                               |--3--|
  E  E  E  E  E  E  E  E     E  E  E  E  E  E  Q     E
--------------------------|-----------------------------|
--------8-----------8-----|--------8-----------8p----7--|
--------9-----------9-----|--------9-----------9-----7--|
--------9-----------9-----|--------9-----------9-----7--|
--------------------------|-----------------------------|
--0-----------0-----------|--0-----------0--------------|


                                               |--3--|
  E  E  E  E  E  E  E  E     E  E  E  E  E  E  Q     E
--------------------------|-----------------------------|
--8-----8-----------8-----|--------8-----------8p----7--|
--9-----9-----------9-----|--------9-----------9-----7--|
--9-----9-----------9-----|--------9-----------9-----7--|
--------------------------|-----------------------------|
--------------0-----------|--0-----------0--------------|


                                               |--3--|
  E  E  E  E  E  E  E  E     E  E  E  E  E  E  Q     E
--------------------------|-----------------------------|
--8-----8-----------8-----|--------8-----------8p----7--|
--9-----9-----------9-----|--------9-----------9-----7--|
--9-----9-----------9-----|--------9-----------9-----7--|
--------------------------|--------------------7--------|
--------------0-----------|--0-----------0--------------|


                                               |--3--|
  E  E  E  E  E  E  E  E     E  E  E  E  E  E  Q     E
--------------------------|-----------------------------|
--8-----8-----------8-----|--------8-----------8p----7--|
--9-----9-----------9-----|--------9-----------9-----7--|
--9-----9-----------9-----|--------9-----------9-----7--|
--------------------------|-----------------------------|
--------------0-----------|--0-----------0--------------|


  E  E  E  E  E  E  E  E     E  E  E  E  E.  S E.  S
--------------------------|--------------------------|
--7-----7-----7-----7-----|--7-----7-----7---0-7---0-|
--8-----8-----8-----8-----|--8-----8-----8---0-8---0-|
--9-----9-----9-----9-----|--9-----9-----9---0-9---0-|
--9-----9-----9-----9-----|--9-----9-----9---0-9---0-|
--7-----7-----7-----7-----|--7-----7-----7-----7-----|


                                                |--3-|   |--3-|
   E  E   E  E   E  E   E  E      E  E   E  E   Q    E   Q    E
------------------------------|----------------------------------|
--11-----11-----11-----11-----|--11-----11-----11----0--------0--|
--12-----12-----12-----12-----|--12-----12-----12----0--12----0--|
--13-----13-----13-----13-----|--13-----13-----13----0--13----0--|
--13-----13-----13-----13-----|--13-----13-----13----0--13----0--|
--11-----11-----11-----11-----|--11-----11-----11-------11-------|


  E  E   E  E   E.   S E  E      E  E   E.   S E  E   Q
-----------------------------|------------------------------|
--------10-----10p---8-------|--10-----10p---8--------------|
---------9------9------9-----|---9------9------9------------|
---------9------9------9-----|---9------9------9------------|
-----------------------------|------------------------------|
--0--------------------------|-----------------------10\----|


  E  E   E  E   E.   S E  E      E  E  H.
-----------------------------|---------0~------------|
--------10-----10p---8-------|--10-------------------|
---------9------9------9-----|---9-----9b------------|
---------9------9------9-----|---9-------------------|
-----------------------------|-----------------------|
--0--------------------------|-----------------------|


                                               |--3--|
  E  E  E  E  E  E  E  E     E  E  E  E  E  E  Q     E
--------------------------|-----------------------------|
--------8-----------8-----|--------8-----------8p----7--|
--------9-----------9-----|--------9-----------9-----7--|
--------9-----------9-----|--------9-----------9-----7--|
--------------------------|-----------------------------|
--0-----------0-----------|--0-----------0--------------|


                                               |--3--|
  E  E  E  E  E  E  E  E     E  E  E  E  E  E  Q     E
--------------------------|-----------------------------|
--8-----8-----------8-----|--------8-----------8p----7--|
--9-----9-----------9-----|--------9-----------9-----7--|
--9-----9-----------9-----|--------9-----------9-----7--|
--------------------------|-----------------------------|
--------------0-----------|--0-----------0--------------|


                                               |--3--|
  E  E  E  E  E  E  E  E     E  E  E  E  E  E  Q     E
--------------------------|-----------------------------|
--8-----8-----------8-----|--------8-----------8p----7--|
--9-----9-----------9-----|--------9-----------9-----7--|
--9-----9-----------9-----|--------9-----------9-----7--|
--------------------------|-----------------------------|
--------------0-----------|--0-----------0--------------|


                                         |--3--|  |--3--|
  E  E  E  E  E  E  E  E     E  E  E  E  Q     E  Q     E
--------------------------|--------------------------------|
--8-----8-----------8-----|--------8-----8p----7--8p----7--|
--9-----9-----------9-----|--------9-----9-----7--9-----7--|
--9-----9-----------9-----|--------9-----9-----7--9-----7--|
--------------------------|--------------------------------|
--------------0-----------|--0-----------------------------|


                                                   |--3-|
  E  E   E  E  E  E   E  E     E  E   E  E  E  E   Q    E
----------------------------|------------------------------|
--------10-----------10-----|--------10-----------10----0--|
--8------8-----8------8-----|--8------8-----8------8----0--|
--9------9-----9------9-----|--9------9-----9------9----0--|
--9------9-----9------9-----|--9------9-----9------9----0--|
--7------7-----7------7-----|--7------7-----7------7-------|


                                                |--3-|   |--3-|
   E  E   E  E   E  E   E  E      E  E   E  E   Q    E   Q    E
------------------------------|----------------------------------|
--11-----11-----11-----11-----|--11-----11-----11----0--11----0--|
--12-----12-----12-----12-----|--12-----12-----12----0--12----0--|
--13-----13-----13-----13-----|--13-----13-----13----0--13----0--|
--13-----13-----13-----13-----|--13-----13-----13----0--13----0--|
--11-----11-----11-----11-----|--11-----11-----11-------11-------|


                                                      |---3--|
  E  E   E  E   E.   S E  E      E  E   E  E   E  E   E   E  E
-----------------------------|-----------------------------------|
--------10-----10p---8-------|--10-----10------------------------|
---------9------9------9-----|---9------9------------------------|
---------9------9------9-----|---9------9------------------------|
-----------------------------|--------------------5h--7p--5------|
--0--------------------------|-------------5s--7-------------7p--|


  E  E   E  E   E.   S E  E      E  E   E.   S E  E   Q
-----------------------------|------------------------------|
--------10-----10p---8-------|--10-----10p---8--------------|
---------9------9------9-----|---9------9------9------------|
---------9------9------9-----|---9------9------9------------|
-----------------------------|------------------------------|
--0--------------------------|-----------------------10\----|


                                             |--3-|   |--3-|
  E  E   E  E  E  E   E  E     E  E   E  E   Q    E   Q    E
----------------------------|---------------------------------|
--------10-----------10-----|--------10-----10----0--10----0--|
--8------8-----8------8-----|--8------8------8----0---8----0--|
--9------9-----9------9-----|--9------9------9----0---9----0--|
--9------9-----9------9-----|--9------9------9----0---9----0--|
--7------7-----7------7-----|--7------7------7--------7-------|


                                                |--3-|   |--3-|
   E  E   E  E   E  E   E  E      E  E   E  E   Q    E   Q    E
------------------------------|----------------------------------|
--11-----11-----11-----11-----|--11-----11-----11----0--11----0--|
--12-----12-----12-----12-----|--12-----12-----12----0--12----0--|
--13-----13-----13-----13-----|--13-----13-----13----0--13----0--|
--13-----13-----13-----13-----|--13-----13-----13----0--13----0--|
--11-----11-----11-----11-----|--11-----11-----11-------11-------|


                                                |---3--|
  E  E   E  E   E.   S E  E      E  E   E.   S  Q      E  Q
-----------------------------|------------------------12--------|
--------10-----10p---8-------|--10-----10p---8------------------|
---------9------9------9-----|---9------9------14b--------9~----|
---------9------9------9-----|---9------9-----------------------|
-----------------------------|----------------------------------|
--0--------------------------|----------------------------------|


  E  E   E  E   E.   S E  E      E  E   E.   S E  E  E.  S
-----------------------------|-----------------------------|
--------10-----10p---8-------|--10-----10p---8-------------|
---------9------9------9-----|---9------9------9-----------|
---------9------9------9-----|---9------9------9-----------|
-----------------------------|-----------------------------|
--0--------------------------|-----------------------------|


  E  E   E   E   E   E   E   E      E   E   E   E   E   E   E   E
--------------------------------|----------------------------------|
--------------------------------|----------------------------------|
--9--9--11--11--12--12--11--11--|--14--14--12--12--16--16--14--14--|
--------------------------------|----------------------------------|
--7--7---9---9--10--10---9---9--|--12--12--10--10--14--14--12--12--|
--------------------------------|----------------------------------|


  |--3-|  |--3-|  |--3-|  |--3-|     |--3-|  |--3-|  |--3-|  |--3-|
  Q    E  Q    E  Q    E  Q    E     Q    E  Q    E  Q    E  Q    E
----------------------------------|----------------------------------|
----------------------------------|----------------------------------|
----------------------------------|----------------------------------|
--9----0--9----0--9----0--9----0--|--9----0--9----0--9----0--9----0--|
--9----0--9----0--9----0--9----0--|--9----0--9----0--9----0--9----0--|
--7----0--7----0--7----0--7----0--|--7----0--7----0--7----0--7----0--|


  E  E   E   E   E   E   E   E      E   E   E   E   E   E   E   E
--------------------------------|----------------------------------|
--------------------------------|----------------------------------|
--9--9--11--11--12--12--11--11--|--14--14--12--12--10--16--14--14--|
--------------------------------|----------------------------------|
--7--7---9---9--10--10---9---9--|--12--12--10--10--14--14--12--12--|
--------------------------------|----------------------------------|


  |--3-|  |--3-|  |--3-|  |--3-|     |--3-|  |--3-|  |--3-|  |--3-|
  Q    E  Q    E  Q    E  Q    E     Q    E  Q    E  Q    E  Q    E
----------------------------------|----------------------------------|
----------------------------------|----------------------------------|
----------------------------------|----------------------------------|
--9----0--9----0--9----0--9----0--|--9----0--9----0--9----0--9----0--|
--9----0--9----0--9----0--9----0--|--9----0--9----0--9----0--9----0--|
--7----0--7----0--7----0--7----0--|--7----0--7----0--7----0--7----0--|


   E   E   E   E  E  E  E  E     E  E   E   E   E   E   E   E
------------------------------|--------------------------------|
------------------------------|--------------------------------|
--12--12--11--11--9--9--7--7--|--9--9--11--11--12--12--11--11--|
------------------------------|--------------------------------|
--10--10---9---9--7--7--5--5--|--7--7---9---9--10--10---9---9--|
------------------------------|--------------------------------|


  |--3-|  |--3-|  |--3-|  |--3-|     |--3-|  |--3-|  |--3-|  |--3-|
  Q    E  Q    E  Q    E  Q    E     Q    E  Q    E  Q    E  Q    E
----------------------------------|----------------------------------|
----------------------------------|----------------------------------|
----------------------------------|----------------------------------|
--9----0--9----0--9----0--9----0--|--9----0--9----0--9----0--9----0--|
--9----0--9----0--9----0--9----0--|--9----0--9----0--9----0--9----0--|
--7----0--7----0--7----0--7----0--|--7----0--7----0--7----0--7----0--|


  E  E   E   E   E   E   E   E      E   E   E   E   E   E   E   E
--------------------------------|----------------------------------|
--------------------------------|----------------------------------|
--9--9--11--11--12--12--11--11--|--14--14--12--12--16--16--14--14--|
--------------------------------|----------------------------------|
--7--7---9---9--10--10---9---9--|--12--12--10--10--14--14--12--12--|
--------------------------------|----------------------------------|


  |--3-|  |--3-|  |--3-|  |--3-|     |--3-|  |--3-|  |--3-|
  Q    E  Q    E  Q    E  Q    E     Q    E  Q    E  Q    E   Q
----------------------------------|---------------------------------|
----------------------------------|---------------------------------|
----------------------------------|---------------------------------|
--9----0--9----0--9----0--9----0--|--9----0--9----0--9----0---------|
--9----0--9----0--9----0--9----0--|--9----0--9----0--9----0---------|
--7----0--7----0--7----0--7----0--|--7----0--7----0--7----0--15\----|


  E  E   E  E   E.   S E  E      E  E   E.   S E  E   Q
-----------------------------|------------------------------|
--------10-----10p---8-------|--10-----10p---8--------------|
---------9------9------9-----|---9------9------9------------|
---------9------9------9-----|---9------9------9------------|
-----------------------------|------------------------------|
--0--------------------------|-----------------------10\----|


  E  E   E  E   E.   S E  E      E  E  H.
-----------------------------|---------0~------------|
--------10-----10p---8-------|--10-------------------|
---------9------9------9-----|---9-----9b------------|
---------9------9------9-----|---9-------------------|
-----------------------------|-----------------------|
--0--------------------------|-----------------------|


                                               |--3--|
  E  E  E  E  E  E  E  E     E  E  E  E  E  E  Q     E
--------------------------|-----------------------------|
--------8-----------8-----|--------8-----------8p----7--|
--------9-----------9-----|--------9-----------9-----7--|
--------9-----------9-----|--------9-----------9-----7--|
--------------------------|-----------------------------|
--0-----------0-----------|--0-----------0--------------|


                                               |--3--|
  E  E  E  E  E  E  E  E     E  E  E  E  E  E  Q     E
--------------------------|-----------------------------|
--8-----8-----------8-----|--------8-----------8p----7--|
--9-----9-----------9-----|--------9-----------9-----7--|
--9-----9-----------9-----|--------9-----------9-----7--|
--------------------------|-----------------------------|
--------------0-----------|--0-----------0--------------|


                                               |--3--|
  E  E  E  E  E  E  E  E     E  E  E  E  E  E  Q     E
--------------------------|-----------------------------|
--8-----8-----------8-----|--------8-----------8p----7--|
--9-----9-----------9-----|--------9-----------9-----7--|
--9-----9-----------9-----|--------9-----------9-----7--|
--------------------------|-----------------------------|
--------------0-----------|--0-----------0--------------|


                                               |--3--|
  E  E  E  E  E  E  E  E     E  E  E  E  E  E  Q     E
--------------------------|-----------------------------|
--8-----8-----------8-----|--------8-----------8p----7--|
--9-----9-----------9-----|--------9-----------9-----7--|
--9-----9-----------9-----|--------9-----------9-----7--|
--------------------------|-----------------------------|
--------------0-----------|--0-----------0--------------|


                                                   |--3--|
  E  E   E  E  E  E   E  E     E  E   E  E  E  E   Q     E
----------------------------|-------------------------------|
--------10-----------10-----|--------10-----------10p----0--|
--8------8-----8------8-----|--8------8-----8------8-----0--|
--9------9-----9------9-----|--9------9-----9------9-----0--|
--9------9-----9------9-----|--9------9-----9------9-----0--|
--7------7-----7------7-----|--7------7-----7------7--------|


                                                |--3-|   |--3-|
   E  E   E  E   E  E   E  E      E  E   E  E   Q    E   Q    E
------------------------------|----------------------------------|
--11-----11-----11-----11-----|--11-----11-----11----0--11----0--|
--12-----12-----12-----12-----|--12-----12-----12----0--12----0--|
--13-----13-----13-----13-----|--13-----13-----13----0--13----0--|
--13-----13-----13-----13-----|--13-----13-----13----0--13----0--|
--11-----11-----11-----11-----|--11-----11-----11-------11-------|


                                               |---3--|   |---3--|
  E  E   E  E   E.   S E  E      E  E   E.   S E   E  E   E   E  E
-----------------------------|---------------------------------------|
--------10-----10p---8-------|--10-----10p---8-----------------------|
---------9------9------9-----|---9------9----------------------------|
---------9------9------9-----|---9------9----------------------------|
-----------------------------|------------------------5h--7p--5------|
--0--------------------------|-----------------5s--7-------------7p--|


                                        NH
  E  E   E  E   E.   S E  E     E  E    H.
-----------------------------|--7--------------------|
--------10-----10p---8-------|--7-----7------------|
---------9------9------9-----|--------7------------|
---------9------9------9-----|-----------------------|
-----------------------------|-----------------------|
--0--------------------------|-----------------------|


                                               |--3--|
  E  E  E  E  E  E  E  E     E  E  E  E  E  E  Q     E
--------------------------|-----------------------------|
--------8-----------8-----|--------8-----------8p----7--|
--------9-----------9-----|--------9-----------9-----7--|
--------9-----------9-----|--------9-----------9-----7--|
--------------------------|-----------------------------|
--0-----------0-----------|--0-----------0--------------|


                                               |--3--|
  E  E  E  E  E  E  E  E     E  E  E  E  E  E  Q     E
--------------------------|-----------------------------|
--8-----8-----------8-----|--------8-----------8p----7--|
--9-----9-----------9-----|--------9-----------9-----7--|
--9-----9-----------9-----|--------9-----------9-----7--|
--------------------------|-----------------------------|
--------------0-----------|--0-----------0--------------|


                                               |--3--|
  E  E  E  E  E  E  E  E     E  E  E  E  E  E  Q     E
--------------------------|-----------------------------|
--8-----8-----------8-----|--------8-----------8p----7--|
--9-----9-----------9-----|--------9-----------9-----7--|
--9-----9-----------9-----|--------9-----------9-----7--|
--------------------------|-----------------------------|
--------------0-----------|--0-----------0--------------|


                                         |--3--|  |--3--|
  E  E  E  E  E  E  E  E     E  E  E  E  Q     E  Q     E
--------------------------|--------------------------------|
--8-----8-----------8-----|--------8-----8p----7--8p----7--|
--9-----9-----------9-----|--------9-----9-----7--9-----7--|
--9-----9-----------9-----|--------9-----9-----7--9-----7--|
--------------------------|--------------------------------|
--------------0-----------|--0-----------------------------|


                                                   |--3--|
  E  E   E  E  E  E   E  E     E  E   E  E  E  E   Q     E
----------------------------|-------------------------------|
--------10-----------10-----|--------10-----------10p----0--|
--8------8-----8------8-----|--8------8-----8------8-----0--|
--9------9-----9------9-----|--9------9-----9------9-----0--|
--9------9-----9------9-----|--9------9-----9------9-----0--|
--7------7-----7------7-----|--7------7-----7------7--------|


                                                |--3-|   |--3-|
   E  E   E  E   E  E   E  E      E  E   E  E   Q    E   Q    E
------------------------------|----------------------------------|
--11-----11-----11-----11-----|--11-----11-----11----0--------0--|
--12-----12-----12-----12-----|--12-----12-----12----0--12----0--|
--13-----13-----13-----13-----|--13-----13-----13----0--13----0--|
--13-----13-----13-----13-----|--13-----13-----13----0--13----0--|
--11-----11-----11-----11-----|--11-----11-----11-------11-------|


  E  E   E  E   E.   S E  E      E  E   E.   S E  E   Q
-----------------------------|------------------------------|
--------10-----10p---8-------|--10-----10p---8--------------|
---------9------9------9-----|---9------9------9------------|
---------9------9------9-----|---9------9------9------------|
-----------------------------|------------------------------|
--0--------------------------|-----------------------10\----|


  E  E   E  E   E.   S E  E      E  E   E.   S E  E  E.  S
-----------------------------|-----------------------------|
--------10-----10p---8-------|--10-----10p---8-------8-----|
---------9------9------9-----|---9------9------9-----9-----|
---------9------9------9-----|---9------9------9-----9-----|
-----------------------------|-----------------------------|
--0--------------------------|-----------------------------|


                                                   |--3-|
  E  E   E  E  E  E   E  E     E  E   E  E  E  E   Q    E
----------------------------|------------------------------|
--------10-----------10-----|--------10-----------10----0--|
--8------8-----8------8-----|--8------8-----8------8----0--|
--9------9-----9------9-----|--9------9-----9------9----0--|
--9------9-----9------9-----|--9------9-----9------9----0--|
--7------7-----7------7-----|--7------7-----7------7-------|


                        |--3-|             |--3-|   |--3-|   |--3-|
   E  E   E  E   E  E   Q    E      E  E   Q    E   Q    E   Q    E
--------------------------------|------------------------------------|
--11-----11-----11-----11----0--|---------------0--------0--------0--|
--12-----12-----12-----12----0--|--12-----12----0--12----0--12----0--|
--13-----13-----13-----13----0--|--13-----13----0--13----0--13----0--|
--13-----13-----13-----13-------|--13-----13-------13-------13-------|
--11-----11-----11-----11-------|--11-----11-------11-------11-------|


  E  E   E  E   E.   S E  E      E  E   E.   S  E.    S Q
-----------------------------|-----------------------12-------|
--------10-----10p---8-------|--10-----10p---8----------------|
---------9------9------9-----|---9------9------14b------9~----|
---------9------9------9-----|---9------9---------------------|
-----------------------------|--------------------------------|
--0--------------------------|--------------------------------|


  E  E   E  E   E.   S E  E      E  E   E.   S E  E   Q
-----------------------------|------------------------------|
--------10-----10p---8-------|--10-----10p---8--------------|
---------9------9------9-----|---9------9------9------------|
---------9------9------9-----|---9------9------9------------|
-----------------------------|------------------------------|
--0--------------------------|-----------------------10\----|


  E  E   E   E   E   E   E   E      E   E   E   E   E   E   E   E
--------------------------------|----------------------------------|
--------------------------------|----------------------------------|
--9--9--11--11--12--12--11--11--|--14--14--12--12--16--16--14--14--|
--------------------------------|----------------------------------|
--7--7---9---9--10--10---9---9--|--12--12--10--10--14--14--12--12--|
--------------------------------|----------------------------------|


  |--3-|  |--3-|  |--3-|  |--3-|     |--3-|  |--3-|  |--3-|  |--3-|
  Q    E  Q    E  Q    E  Q    E     Q    E  Q    E  Q    E  Q    E
----------------------------------|----------------------------------|
----------------------------------|----------------------------------|
----------------------------------|----------------------------------|
--9----0--9----0--9----0--9----0--|--9----0--9----0--9----0--9----0--|
--9----0--9----0--9----0--9----0--|--9----0--9----0--9----0--9----0--|
--7----0--7----0--7----0--7----0--|--7----0--7----0--7----0--7----0--|


  E  E   E   E   E   E   E   E      E   E   E   E   E   E   E   E
--------------------------------|----------------------------------|
--------------------------------|----------------------------------|
--9--9--11--11--12--12--11--11--|--14--14--12--12--16--16--14--14--|
--------------------------------|----------------------------------|
--7--7---9---9--10--10---9---9--|--12--12--10--10--14--14--12--12--|
--------------------------------|----------------------------------|


  |--3-|  |--3-|  |--3-|  |--3-|     |--3-|  |--3-|  |--3-|  |--3-|
  Q    E  Q    E  Q    E  Q    E     Q    E  Q    E  Q    E  Q    E
----------------------------------|----------------------------------|
----------------------------------|----------------------------------|
----------------------------------|----------------------------------|
--9----0--9----0--9----0--9----0--|--9----0--9----0--9----0--9----0--|
--9----0--9----0--9----0--9----0--|--9----0--9----0--9----0--9----0--|
--7----0--7----0--7----0--7----0--|--7----0--7----0--7----0--7----0--|


   E   E   E   E  E  E  E  E     E  E   E   E   E   E   E   E
------------------------------|--------------------------------|
------------------------------|--------------------------------|
--12--12--11--11--9--9--7--7--|--9--9--11--11--12--12--11--11--|
------------------------------|--------------------------------|
--10--10---9---9--7--7--5--5--|--7--7---9---9--10--10---9---9--|
------------------------------|--------------------------------|


  |--3-|  |--3-|  |--3-|  |--3-|     |--3-|  |--3-|  |--3-|  |--3-|
  Q    E  Q    E  Q    E  Q    E     Q    E  Q    E  Q    E  Q    E
----------------------------------|----------------------------------|
----------------------------------|----------------------------------|
----------------------------------|----------------------------------|
--9----0--9----0--9----0--9----0--|--9----0--9----0--9----0--9----0--|
--9----0--9----0--9----0--9----0--|--9----0--9----0--9----0--9----0--|
--7----0--7----0--7----0--7----0--|--7----0--7----0--7----0--7----0--|


  E  E   E   E   E   E   E   E      E   E   E   E   E   E   E   E
--------------------------------|----------------------------------|
--------------------------------|----------------------------------|
--9--9--11--11--12--12--11--11--|--14--14--12--12--16--16--14--14--|
--------------------------------|----------------------------------|
--7--7---9---9--10--10---9---9--|--12--12--10--10--14--14--12--12--|
--------------------------------|----------------------------------|


  |--3-|  |--3-|  |--3-|  |--3-|     |--3-|  |--3-|  |--3-|
  Q    E  Q    E  Q    E  Q    E     Q    E  Q    E  Q    E   Q
----------------------------------|---------------------------------|
----------------------------------|---------------------------------|
----------------------------------|---------------------------------|
--9----0--9----0--9----0--9----0--|--9----0--9----0--9----0---------|
--9----0--9----0--9----0--9----0--|--9----0--9----0--9----0---------|
--7----0--7----0--7----0--7----0--|--7----0--7----0--7----0--10\----|


  |--3-|  |--3-|  |--3-|  |--3-|     |--3-|  |--3-|  |--3-|  |--3-|
  Q    E  Q    E  Q    E  Q    E     Q    E  Q    E  Q    E  Q    E
----------------------------------|----------------------------------|
-------0-------0-------0-------0--|-------0-------0-------0-------0--|
--9----0--9----0--9----0--9----0--|--9----0--9----0--9----0--9----0--|
--9-------9-------9-------9-------|--9-------9-------9-------9-------|
--7-------7-------7-------7-------|--7-------7-------7-------7-------|
----------------------------------|----------------------------------|


  |--3-|  |--3-|  |--3-|  |--3-|     |-----3----|    |----3----|
  Q    E  Q    E  Q    E  Q    E     Q     Q    Q    Q    Q    Q
----------------------------------|---------------------------------|
-------0-------0-------0-------0--|---------------------------------|
--9----0--9----0--9----0--9----0--|-------------8-------------------|
--9-------9-------9-------9-------|--9----10----8----9----7----9----|
--7-------7-------7-------7-------|--9----10----6----9----7----9----|
----------------------------------|--7-----8---------7----5----7----|


  |--3-|  |--3-|  |--3-|  |--3-|     |--3-|  |--3-|  |--3-|  |--3-|
  Q    E  Q    E  Q    E  Q    E     Q    E  Q    E  Q    E  Q    E
----------------------------------|----------------------------------|
-------0-------0-------0-------0--|-------0-------0-------0-------0--|
--9----0--9----0--9----0--9----0--|--9----0--9----0--9----0--9----0--|
--9-------9-------9-------9-------|--9-------9-------9-------9-------|
--7-------7-------7-------7-------|--7-------7-------7-------7-------|
----------------------------------|----------------------------------|


  |--3-|  |--3-|  |--3-|  |--3-|     |-----3----|    |----3----|
  Q    E  Q    E  Q    E  Q    E     Q     Q    Q    Q    Q    Q
----------------------------------|---------------------------------|
-------0-------0-------0-------0--|---------------------------------|
--9----0--9----0--9----0--9----0--|-------------8-------------------|
--9-------9-------9-------9-------|--9----10----8----9----7----9----|
--7-------7-------7-------7-------|--9----10----6----9----7----9----|
----------------------------------|--7-----8---------7----5----7----|


  |-----3----|    |----3----|       |-----3----|    |----3----|
  Q     Q    Q    Q    Q    Q       Q     Q    Q    Q    Q    Q
---------------------------------|---------------------------------|
---------------------------------|---------------------------------|
-------------8-------------------|-------------8-------------------|
--9----10----8----9----7----9----|--9----10----8----9----7----9----|
--9----10----6----9----7----9----|--9----10----6----9----7----9----|
--7-----8---------7----5----7----|--7-----8---------7----5----7----|


  |-----3----|    |----3----|
  Q     Q    Q    Q    Q    Q       E.  H.           S
---------------------------------|---------------------|
---------------------------------|---------------------|
-------------8-------------------|--9------------------|
--9----10----8----9----7----9----|--9------------------|
--9----10----6----9----7----9----|--7------------------|
--7-----8---------7----5----7----|---------------------|


  W                   W                   W
-------------------|-------------------|-------------------|
-------------------|-------------------|-------------------|
-------------------|-------------------|-------------------|
-------------------|-------------------|-------------------|
-------------------|-------------------|-------------------|
-------------------|-------------------|-------------------|


The next four bars are played on the bass, but I tabbed it out for the guitar...

      |--3--|   |--3--|   |--3--|   |--3--|
      Q     E   Q     E   Q     E   Q     E
|------------------------------------------|
|------------------------------------------|
|------------------------------------------|
|------------------------------------------|
|---7-----7---7-----7---7-----7---7-----7--|
|------------------------------------------|


   |----3---|   |--3--|   |--3--|   |--3--|
   E    E   E   Q     E   Q     E   Q     E
---------------------------------------------|
---------------------------------------------|
---------------------------------------------|
---------------------------------------------|
---5h---7---7---7-----7---7-----7---7-----7--|
---------------------------------------------|


   |----3---|   |--3--|   |----3---|   |--3--|
   E    E   E   Q     E   E    E   E   Q     E
------------------------------------------------|
------------------------------------------------|
------------------------------------------------|
--------------------------5h---7---7---7-----7--|
---5h---7---7---7-----7-------------------------|
------------------------------------------------|


   |----3---|   |--3--|   |----3---|   |--3--|
   E    E   E   Q     E   E    E   E   Q     E
-------------------------------------------------|
-------------------------------------------------|
-------------------------------------------------|
-------------------------------------------------|
---5h---7---7---7--------------------------------|
----------------------5---7----7---7---7-----7---|

SOLO
  |---3--|  |---3--|  |---3--|  |---3---|
  E   E  E  E   E  E  E   E  E  E    E  E
---------0---------0---------0----------0--|
--3s--5-----5s--7-----7s--8-----8s--10-----|
-------------------------------------------|
-------------------------------------------|
-------------------------------------------|
-------------------------------------------|


   |--3-|
   E    Q    Q    E   E    E    E      Q     H         S   E    S
----------------------0------------|---0-----0--------------------|
--10s--12----L-------15s--17s--15--|--19----15--------15s-17s--15-|
-----------------------------------|------------------------------|
-----------------------------------|------------------------------|
-----------------------------------|------------------------------|
-----------------------------------|------------------------------|


                     |----3---|                 |----3---|
  S   E  S H         E    E   E       H         E    E   E  Q
----------------------------------|------------------------------|
--8s-12--L-L--------10h--12p--8h--|--10~--------8h--10p--8--7----|
----------------------------------|------------------------------|
----------------------------------|------------------------------|
----------------------------------|------------------------------|
----------------------------------|------------------------------|


       |---3---|               |---3---|
  Q    E   E   E   H           E   E   E   E    H        E
----------------------------|-------------------------------|
--L----7h--8p--5h--7--------|--7h--8p--7h--7s--12--------L--|
----------------------------|-------------------------------|
----------------------------|-------------------------------|
----------------------------|-------------------------------|
----------------------------|-------------------------------|


   |-----3-----|                  |-----3-----|
   Q     Q     Q     H            Q     Q     Q     H
------------------------------|------------------------------|
------------------------------|------------------------------|
--------12----16b----L--------|--------12----16b----L--------|
--14--------------------------|--14--------------------------|
------------------------------|------------------------------|
------------------------------|------------------------------|


   |-----3-----|
   Q     Q     Q     H
------------------------------|
------------------------------|
--------12----16b----L--------|
--14--------------------------|
------------------------------|
------------------------------|


   |---3---|   |---3---|   |---3---|   |---3---|
   E   E   E   E   E   E   E   E   E   E   E   E
--------------------------------------------------|
--19--15------------------19--15------------------|
----------16----------------------16--------------|
--------------19--17--16--------------19--17--16--|
--------------------------------------------------|
--------------------------------------------------|


   |---3---|   |---3---|   |---3---|   |---3---|
   E   E   E   E   E   E   E   E   E   E   E   E
--------------------------------------------------|
--19--15------------------19--15------------------|
----------16----------------------16--------------|
--------------19--17--16--------------19--17--16--|
--------------------------------------------------|
--------------------------------------------------|


   E  H.           E       W                 6x
----------------------||---------------------||
--17------------------||---------------------||
----------------------||*-------------------*||
----------------------||*-------------------*||
----------------------||---------------------||
----------------------||---------------------||


This is what the second guitar plays over the solo

   |---------3--------|  |--3-|  |--3-|  |--3-|
   Q                  E  Q    E  Q    E  Q    E
|------------------------------------------------|
|------------------------------------------------|
|--9------------------9--9----9--9----9--9----9--|
|--9------------------9--9----9--9----9--9----9--|
|--7------------------7--7----7--7----7--7----7--|
|------------------------------------------------|


  |--3-|  |--3-|  |--3-|  |--3-|     |--3-|  |--3-|  |--3-|  |--3-|
  Q    E  Q    E  Q    E  Q    E     Q    E  Q    E  Q    E  Q    E
----------------------------------|----------------------------------|
----------------------------------|----------------------------------|
--9----9--9----9--9----9--9----9--|--9----9--9----9--9----9--9----9--|
--9----9--9----9--9----9--9----9--|--9----9--9----9--9----9--9----9--|
--7----7--7----7--7----7--7----7--|--7----7--7----7--7----7--7----7--|
----------------------------------|----------------------------------|


  |--3-|  |--3-|  |--3-|  |--3-|
  Q    E  Q    E  Q    E  Q    E     W
----------------------------------|-------------------|
----------------------------------|-------------------|
--9----9--9----9--9----9--9----9--|--9----------------|
--9----9--9----9--9----9--9----9--|--9----------------|
--7----7--7----7--7----7--7----7--|--7----------------|
----------------------------------|-------------------|


   W                    W                    W
--------------------|--------------------|--------------------|
--------------------|--------------------|--------------------|
--11----------------|--12----------------|--14----------------|
--11----------------|--12----------------|--14----------------|
---9----------------|--10----------------|--12----------------|
--------------------|--------------------|--------------------|


   W                    W                    W
--------------------|--------------------|--------------------|
--12----------------|--14----------------|--15----------------|
--11----------------|--13----------------|--14----------------|
---9----------------|--11----------------|--12----------------|
--------------------|--------------------|--------------------|
--------------------|--------------------|--------------------|


                        |--3-|
   W                    Q    E  H.
--------------------|------------------------|
--16----------------|--17--------------------|
--15----------------|--16--------------------|
--13----------------|--14--------------------|
--------------------|------------------------|
--------------------|------------------------|

Once again, the next bar is originlally a bass riff, but transcribed as guitar...

  Q    Q    Q    Q
|---------------------|
|---------------------|
|---------------------| Play this eight times, but on the eighth time, the
|---------------------| riff below (which is played by guitar) begins...
|------7---------7----|
|-0---------0---------|

              NH
  Q    Q      Q     Q        E  E  E  E  E  E  E  E
--------------------------|--------------------------|
------------7-----------|--------8-----------8-----|
------------7-----------|--------9-----------9-----|
--------------------------|--------9-----------9-----|
--------------------------|--------------------------|
-------------------10\----|--0-----------0-----------|


                    |--3--|
  E  E  E  E  E  E  Q     E     E  E  E  E  E  E  E  E
-----------------------------|--------------------------|
--------8-----------8p----7--|--8-----8-----------8-----|
--------9-----------9-----7--|--9-----9-----------9-----|
--------9-----------9-----7--|--9-----9-----------9-----|
-----------------------------|--------------------------|
--0-----------0--------------|--------------0-----------|


                    |--3--|
  E  E  E  E  E  E  Q     E     E  E   E  E  E  E   E  E
-----------------------------|----------------------------|
--------8-----------8p----7--|--------10-----------10-----|
--------9-----------9-----7--|--8------8-----8------8-----|
--------9-----------9-----7--|--9------9-----9------------|
-----------------------------|--9------9-----9------9-----|
--0-----------0--------------|--7------7-----7------7-----|


                      |--3-|
  E  E   E  E  E  E   Q    E      E  E   E  E   E  E   E  E
------------------------------|------------------------------|
--------10-----------10----0--|--11-----11-----11-----11-----|
--8------8-----8------8----0--|--12-----12-----12-----12-----|
--9------9-----9------9----0--|--13-----13-----13-----13-----|
--9------9-----9------9----0--|--13-----13-----13-----13-----|
--7------7-----7------7-------|--11-----11-----11-----11-----|


                 |--3-|   |--3-|
   E  E   E  E   Q    E   Q    E     E  E   E  E   E.   S E  E
----------------------------------|-----------------------------|
--11-----11-----11----0--------0--|--------10-----10p---8-------|
--12-----12-----12----0--12----0--|---------9------9------9-----|
--13-----13-----13----0--13----0--|---------9------9------9-----|
--13-----13-----13----0--13----0--|-----------------------------|
--11-----11-----11-------11-------|--0--------------------------|


                         NH
   E  E   E.   S E  E    Q       E  E   E  E   E.   S E  E
------------------------------|-----------------------------|
--10-----10p---8-------7----|--------10-----10p---8-------|
---9------9------9-----7----|---------9------9------9-----|
---9------9------9------------|---------9------9------9-----|
------------------------------|-----------------------------|
------------------------------|--0--------------------------|


   E  E   E.   S  E  E   E.   S    E  E  E  E  E  E   E  E
--------------------------------|---------------------------|
--10-----10p---8-10-----10p---8-|--------------------10-----|
---9------9-------9------9------|--8-----8-----8------8-----|
---9------9-------9------9------|--9-----9-----9------9-----|
--------------------------------|--9-----9-----9------9-----|
--------------------------------|--7-----7-----7------7-----|


                |--3-|   |--3-|
  E  E   E  E   Q    E   Q    E      E  E   E  E   E  E   E  E
---------------------------------|------------------------------|
--------10-----10----0--10----0--|--11-----11-----11-----11-----|
--8------8------8----0---8----0--|--12-----12-----12-----12-----|
--9------9------9----0---9----0--|--13-----13-----13-----13-----|
--9------9------9----0---9----0--|--13-----13-----13-----13-----|
--7------7------7--------7-------|--11-----11-----11-----11-----|


   E  E   E  E   E  E   E  E      Q    Q     Q    Q
------------------------------|--12---------12---------|
--11-----11-----11-----11-----|--12---------12---------|
--12-----12-----12-----12-----|--12---------12---------|
--13-----13-----13-----13-----|---9----------9---------|
--13-----13-----13-----13-----|------------------------|
--11-----11-----11-----11-----|------------------------|


   Q    Q     Q    Q        Q    H.
--12---------12---------|--12-----------------|---------------||
--12---------12---------|--12-----------------|---------------||
--12---------12---------|--12-----------------|---------------||
---9----------9---------|---9-----------------|---------------||
------------------------|---------------------|---------------||
------------------------|---------------------|---------------||


Duration Legend
---------------
W - whole
H - half
Q - quarter
E - 8th
S - 16th
T - 32nd
X - 64th
. - note dotted
|-n-|  - n-tuplets


Tablature Legend
----------------
L - tied note
x - dead note
g - grace note
(n) - ghost note
> - accentuded note
NH - natural harmonic
AH - artificial harmonic
TH - tapped harmonic
SH - semi harmonic
PH - pitch harmonic
h - hammer on
p - pull off
b - bend
br - bendRelease
pb - preBend
pbr - preBendRelease
brb - bendReleaseBend
\n/ - tremolo bar dip
\n - tremolo bar dive
-/n - tremolo bar Release up
/n\ - tremolo bar inverted dip
/n - tremolo bar return
-\n - tremolo bar Release down
S - shift slide
s - legato slide
/ -  slide into from below or out of upwards
\ -  slide into from above or out of downwards
~ - vibrato
W - wide vibrato
tr - trill
TP - tremolo picking
T - tapping
S - slap
P - pop
< - fade in
^ - brush up
v - brush down

That's my take on it, enjoy
LONG LIVE MEGADETH!...and QOTSA!    

Added On December 16th, 2013

SHARE

Comments

blog comments powered by Disqus