Rammstein Tabs

Bestrafe Mich

6 versions

TAB

            Bestrafe Mich Tab by Rammstein


          Bestrafe Mich
          By Rammstein
          From Sehnsucht
          Tabbed By Mike Gagnon
          
          Drop D Tuning
          
          Intro
          
          e---------------------------------------------------------------
          B---------------------------------------------------------------
          G---------------------------------------------------------------
          D-------------------------------------------------------------2-
          A-2-2-2--2-2--2-2-2--2-2--2-2-2--2-2--2/5--2--2---5-4-3-5-4-3-2-
          D-2-2-2--2-2--2-2-2--2-2--2-2-2--2-2--2/5--2--2---5-4-3-5-4-3-2-
          
          Verse
          
          e----------------------------------
          B----------------------------------
          G----------------------------------
          D----------------------------------
          A-2-2--2-2-2--2-2--2-2--2-2-2--1-0-
          D-2-2--2-2-2--2-2--2-2--2-2-2--1-0-
          
          Chorus
          
          e---------------------------------
          B---------------------------------
          G----------4----------5---------9-
          D-2--------4----------5---------9-
          A-2--------2----------3---------7-
          D-2-------------------------------    

Added On December 5th, 2013

SHARE

Comments

blog comments powered by Disqus