Rancid Tabs

Bob

4 versions

TAB

            Bob Tab by Rancid


PM=palm mute Intro

e------------------------------------------------
B------------------------------------------------
G-5-------------5--------------------------------PM
D-5-(16)-3------5-(16)-3-------------------------
A-3------3-(16)-3------3-(16)--------------------
E--------1-------------1-------------------------

Oi Oi Oi- Verse
e------------------------------------------------
B------------------------------------------------
G-5-------------5--------------------------------
D-5-Hold-3------5-Hold-3-------------------------
A-3------3-Hold-3------3-Hold--------------------
E--------1-------------1-------------------------


Chorus
e------------------------------------------------
B------------------------------------------------
G--5---------------------------------------------
D--5---5---7---3---------------------------------
A--3---5---7---3-x2------------------------------
E------3---5---1---------------------------------

SOLO
e----------------------------------------------------------------------------
B------------5-8-5-8-5-8-5-5-5-----------------------------------------------
G--------5-7--------------------7-5-7--------5-------5------5-5-4-4-5-5-7-9--
D--5-5-7--------------------------------7-5-7---7-5-7--7-5-7-----------------
A----------------------------------------------------------------------------
E----------------------------------------------------------------------------
Continued
e---8-8-8-8-8-7-7-7-7-7-8-8-8-8-8-7-7-7-7-7-10-10-9-9-7-7-5-5-3-3-1-1-0-0-1-3
B-6-8-8-8-8-8-8-8-8-8-8-8-8-8-8-8-8-8-8-8-8----------------------------------
G----------------------------------------------------------------------------
D----------------------------------------------------------------------------
A----------------------------------------------------------------------------
E----------------------------------------------------------------------------

e------------------------------------------------
B------------------------------------------------
G-5-------------5--------------------------------
D-5-Hold-3------5-Hold-3-------------------------
A-3------3-Hold-3------3-Hold--------------------
E--------1-------------1-------------------------

e------------------------------------------------
B------------------------------------------------
G-5------3---------------------------------------
D-5------3------3------3-------------------------
A-3------1------3------3-x8----------------------
E---------------1------5-------------------------

e------------------------------------------------
B------------------------------------------------
G-5--------3-------------------------------------
D-5-x2-----3-x2-----3--------3-------------------
A-3--------1--------3-x2-----3-x2----------------
E-------------------1--------5-------------------    

Added On December 5th, 2013

SHARE

Comments

blog comments powered by Disqus

VERSIONS

ADVERTISEMENT