Rancid Tabs

Cold Cold Blood tab

1 versions

TAB

            [Intro]

e|---------------------------|
B|---------------------------|
G|---------------------------|
D|---------------------------|
A|---------2------2----------|
E|--0--3-4----3-4-----3b-3b--|

[Chorus]

e|------------------|------------------|------------------|------------------|
B|------------------|------------------|------------------|------------------|
G|------------------|------------------|------------------|------------------|
D|--2--2-2-2-2-2-2--|--2--2-2-2-2-2-2--|--2--2-2-2-2-2-2--|--2--2-2-2-2-2-2--| (x2)
A|--2--2-2-2-2-2-2--|--2--2-2-2-2-2-2--|--2--2-2-2-2-2-2--|--2--2-2-2-2-2-2--|
E|--0--0-0-0-0-0-0--|--0--0-0-0-0-0-0--|--0--0-0-0-0-0-0--|--0--0-0-0-0-0-0--|
          PM                 PM                  PM                PM
e|------------------|------------------|------------------|------------------|
B|------------------|------------------|------------------|------------------|
G|--2--2-2-2-2-2-2--|--2--2-2-2-2-2-2--|--4--4-4-4-4-4-4--|--4--4-4-4-4-4-4--|
D|--2--2-2-2-2-2-2--|--2--2-2-2-2-2-2--|--4--4-4-4-4-4-4--|--4--4-4-4-4-4-4--|
A|--0--0-0-0-0-0-0--|--0--0-0-0-0-0-0--|--2--2-2-2-2-2-2--|--2--2-2-2-2-2-2--|
E|------------------|------------------|------------------|------------------|

e|-----------------------------|
B|-----------------------------|
G|-------------0--2--2-2--2--0-|
D|--2--2-2--2--0--2--2-2--2--0-| (x2)
A|--2--2-2--2--0--0--0-0--0--0-|
E|--0--0-0--0------------------|


[Verse 1]

e|------------------|------------------|------------------|------------------|
B|------------------|------------------|------------------|------------------|
G|--2--2-2-2-2-2-2--|--2--2-2-2-2-2-2--|--2--2-2-2-2-2-2--|--2--2-2-2-2-2-2--|
D|--2--2-2-2-2-2-2--|--2--2-2-2-2-2-2--|--2--2-2-2-2-2-2--|--2--2-2-2-2-2-2--|
A|--0--0-0-0-0-0-0--|--0--0-0-0-0-0-0--|--0--0-0-0-0-0-0--|--0--0-0-0-0-0-0--|
E|------------------|------------------|------------------|------------------|
          PM                 PM                  PM                PM
e|---------------------|------------------|------------------|--------------------|
B|---------------------|------------------|------------------|--------------------|
G|--0------------------|------------------|------------------|------------------0-|
D|--0--2--2-2-2-2-2-2--|--2--2-2-2-2-2-2--|--2--2-2-2-2-2-2--|--2--2-2-2-2-2-2--0-| 
A|--0--2--2-2-2-2-2-2--|--2--2-2-2-2-2-2--|--2--2-2-2-2-2-2--|--2--2-2-2-2-2-2--0-|
E|-----0--0-0-0-0-0-0--|--0--0-0-0-0-0-0--|--0--0-0-0-0-0-0--|--0--0-0-0-0-0-0----|
          PM                 PM                  PM                PM

e|------------------|------------------|------------------|------------------|
B|------------------|------------------|------------------|------------------|
G|--2--2-2-2-2-2-2--|--2--2-2-2-2-2-2--|--2--2-2-2-2-2-2--|--2--2-2-2-2-2-2--|
D|--2--2-2-2-2-2-2--|--2--2-2-2-2-2-2--|--2--2-2-2-2-2-2--|--2--2-2-2-2-2-2--|
A|--0--0-0-0-0-0-0--|--0--0-0-0-0-0-0--|--0--0-0-0-0-0-0--|--0--0-0-0-0-0-0--|
E|------------------|------------------|------------------|------------------|

e|------------------|------------------|------------------|----------|
B|------------------|------------------|------------------|----------|
G|--4--4-4-4-4-4-4--|--3--3-3-3-3-3-3--|--2--2-2-2-2-2-2--|----------|
D|--4--4-4-4-4-4-4--|--3--3-3-3-3-3-3--|--2--2-2-2-2-2-2--|----------|
A|--2--2-2-2-2-2-2--|--1--1-1-1-1-1-1--|--0--0-0-0-0-0-0--|----------|
E|------------------|------------------|------------------|--3b--3b--|


[Chorus]

e|------------------|------------------|------------------|------------------|
B|------------------|------------------|------------------|------------------|
G|------------------|------------------|------------------|------------------|
D|--2--2-2-2-2-2-2--|--2--2-2-2-2-2-2--|--2--2-2-2-2-2-2--|--2--2-2-2-2-2-2--| (x2)
A|--2--2-2-2-2-2-2--|--2--2-2-2-2-2-2--|--2--2-2-2-2-2-2--|--2--2-2-2-2-2-2--|
E|--0--0-0-0-0-0-0--|--0--0-0-0-0-0-0--|--0--0-0-0-0-0-0--|--0--0-0-0-0-0-0--|

e|------------------|------------------|------------------|------------------|
B|------------------|------------------|------------------|------------------|
G|--2--2-2-2-2-2-2--|--2--2-2-2-2-2-2--|--4--4-4-4-4-4-4--|--4--4-4-4-4-4-4--|
D|--2--2-2-2-2-2-2--|--2--2-2-2-2-2-2--|--4--4-4-4-4-4-4--|--4--4-4-4-4-4-4--|
A|--0--0-0-0-0-0-0--|--0--0-0-0-0-0-0--|--2--2-2-2-2-2-2--|--2--2-2-2-2-2-2--|
E|------------------|------------------|------------------|------------------|
  
e|-----------------------------|
B|-----------------------------|
G|-------------0--2--2-2--2--0-|
D|--2--2-2--2--0--2--2-2--2--0-| (x2)
A|--2--2-2--2--0--0--0-0--0--0-|
E|--0--0-0--0------------------|


[Verse 2]

e|------------------|------------------|------------------|-----------|
B|------------------|------------------|------------------|-----------|
G|--2--2-2-2-2-2-2--|--2--2-2-2-2-2-2--|--2--2-2-2-2-2-2--|--4--2--0--|
D|--2--2-2-2-2-2-2--|--2--2-2-2-2-2-2--|--2--2-2-2-2-2-2--|--4--2--0--|
A|--0--0-0-0-0-0-0--|--0--0-0-0-0-0-0--|--0--0-0-0-0-0-0--|--2--0--0--|
E|------------------|------------------|------------------|-----------|
          PM                 PM                  PM             PM
e|------------------|------------------|------------------|--------------------|
B|------------------|------------------|------------------|--------------------|
G|------------------|------------------|------------------|------------------0-|
D|--2--2-2-2-2-2-2--|--2--2-2-2-2-2-2--|--2--2-2-2-2-2-2--|--2--2-2-2-2-2-2--0-|
A|--2--2-2-2-2-2-2--|--2--2-2-2-2-2-2--|--2--2-2-2-2-2-2--|--2--2-2-2-2-2-2--0-|
E|--0--0-0-0-0-0-0--|--0--0-0-0-0-0-0--|--0--0-0-0-0-0-0--|--0--0-0-0-0-0-0----|
          PM                 PM                  PM                PM

e|------------------|------------------|------------------|------------------|
B|------------------|------------------|------------------|------------------|
G|--2--2-2-2-2-2-2--|--2--2-2-2-2-2-2--|--2--2-2-2-2-2-2--|--2--2-2-2-2-2-2--|
D|--2--2-2-2-2-2-2--|--2--2-2-2-2-2-2--|--2--2-2-2-2-2-2--|--2--2-2-2-2-2-2--|
A|--0--0-0-0-0-0-0--|--0--0-0-0-0-0-0--|--0--0-0-0-0-0-0--|--0--0-0-0-0-0-0--|
E|------------------|------------------|------------------|------------------|

e|------------------|------------------|------------------|----------|
B|------------------|------------------|------------------|----------|
G|--4--4-4-4-4-4-4--|--3--3-3-3-3-3-3--|--2--2-2-2-2-2-2--|----------|
D|--4--4-4-4-4-4-4--|--3--3-3-3-3-3-3--|--2--2-2-2-2-2-2--|----------|
A|--2--2-2-2-2-2-2--|--1--1-1-1-1-1-1--|--0--0-0-0-0-0-0--|----------|
E|------------------|------------------|------------------|--3b--3b--|


[Chorus]

e|------------------|------------------|------------------|------------------|
B|------------------|------------------|------------------|------------------|
G|------------------|------------------|------------------|------------------|
D|--2--2-2-2-2-2-2--|--2--2-2-2-2-2-2--|--2--2-2-2-2-2-2--|--2--2-2-2-2-2-2--| (x2)
A|--2--2-2-2-2-2-2--|--2--2-2-2-2-2-2--|--2--2-2-2-2-2-2--|--2--2-2-2-2-2-2--|
E|--0--0-0-0-0-0-0--|--0--0-0-0-0-0-0--|--0--0-0-0-0-0-0--|--0--0-0-0-0-0-0--|
         PM                 PM                  PM                PM
e|------------------|------------------|------------------|------------------|
B|------------------|------------------|------------------|------------------|
G|--2--2-2-2-2-2-2--|--2--2-2-2-2-2-2--|--4--4-4-4-4-4-4--|--4--4-4-4-4-4-4--|
D|--2--2-2-2-2-2-2--|--2--2-2-2-2-2-2--|--4--4-4-4-4-4-4--|--4--4-4-4-4-4-4--|
A|--0--0-0-0-0-0-0--|--0--0-0-0-0-0-0--|--2--2-2-2-2-2-2--|--2--2-2-2-2-2-2--|
E|------------------|------------------|------------------|------------------|
  
e|-----------------------------|
B|-----------------------------|
G|-------------0--2--2-2--2--0-|
D|--2--2-2--2--0--2--2-2--2--0-| (x2)
A|--2--2-2--2--0--0--0-0--0--0-|
E|--0--0-0--0------------------|


[Solo]

e|--3--3--3------------------------|-3--3----------------------|----------------11-10--|
B|--3--3--3----3-3-3---------------|-3--3----3-3---------------|-----------------------|
G|--5b-5b-5b7--3-3-3--5p3-5p3--0-3-|-5b-5b7--3-3--5p3-5p3--0-3-|--8-7---12-11----------|
D|---------------------------------|---------------------------|-----------------------|
A|---------------------------------|---------------------------|-----------------------|
E|---------------------------------|---------------------------|-----------------------|


[Chorus]

e|------------------|------------------|------------------|------------------|
B|------------------|------------------|------------------|------------------|
G|------------------|------------------|------------------|------------------|
D|--2--2-2-2-2-2-2--|--2--2-2-2-2-2-2--|--2--2-2-2-2-2-2--|--2--2-2-2-2-2-2--| (x2)
A|--2--2-2-2-2-2-2--|--2--2-2-2-2-2-2--|--2--2-2-2-2-2-2--|--2--2-2-2-2-2-2--|
E|--0--0-0-0-0-0-0--|--0--0-0-0-0-0-0--|--0--0-0-0-0-0-0--|--0--0-0-0-0-0-0--|

e|------------------|------------------|------------------|------------------|
B|------------------|------------------|------------------|------------------|
G|--2--2-2-2-2-2-2--|--2--2-2-2-2-2-2--|--4--4-4-4-4-4-4--|--4--4-4-4-4-4-4--|
D|--2--2-2-2-2-2-2--|--2--2-2-2-2-2-2--|--4--4-4-4-4-4-4--|--4--4-4-4-4-4-4--|
A|--0--0-0-0-0-0-0--|--0--0-0-0-0-0-0--|--2--2-2-2-2-2-2--|--2--2-2-2-2-2-2--|
E|------------------|------------------|------------------|------------------|

  
[Outro]

e|-----------------------------|
B|-----------------------------|
G|-------------0--2--2-2--2--0-|
D|--2--2-2--2--0--2--2-2--2--0-| (x4)
A|--2--2-2--2--0--0--0-0--0--0-|
E|--0--0-0--0------------------|

e|-----|
B|-----|
G|-----|
D|--2--|
A|--2--|
E|--0--|



************************************

| p   Pull-off
| b   Bend
| PM  Palm mute

************************************    

Added On October 12th, 2017

SHARE

Comments

blog comments powered by Disqus

ADVERTISEMENT