Rancid Tabs

Honor Is All We Know

1 versions

TAB

            Tabbed By: Fabio BlenderBR


 Enjoy!


- Intro:

e|-------------4-------------4-------------4-5-5-5-5-5-4---------4---------4---------4---------4---------|
B|-5-5-5-5-5-7---5-5-5-5-5-7---5-5-5-5-5-7---------------7-7-7-7---5-5-5-5---7-7-7-7---5-5-5-5---7-7-7-7-|
G|-------------------------------------------------------------------------------------------------------|
D|-------------------------------------------------------------------------------------------------------|
A|-------------------------------------------------------------------------------------------------------|
E|-------------------------------------------------------------------------------------------------------|

e|----------------------------------|
B|-5---5---4---4---2---2---2h5------|
G|---4---4---4---4---4---4----------|
D|----------------------------------|
A|----------------------------------|
E|----------------------------------|



 - Verse:

E                                        A       E
Don’t change a goddamn thing, hold your head up high
                                         A         B
When the hard times come, we have the strength to defy
A             B               C#m             B
Believe in yourself, let the arrow leave the bow
E          G#        A               E
Honor is among us, honor is all we know



 - Intro:

e|------------------------------------------------------------------|
B|-12-12-12-12-12-12-12-14-14-14-14-12-12-12-12-12-12-12-12-12-12---|
G|------------------------------------------------------------------|
D|------------------------------------------------------------------|
A|------------------------------------------------------------------|
E|------------------------------------------------------------------|

e|------------------------------------------------------------------------------|
B|-14-14-14-14-16-16-16-16-17-17-17-17-16-16-16-16-17-17-17/16-16/14-14/12-12---|
G|------------------------------------------------------------------------------|
D|------------------------------------------------------------------------------|
A|------------------------------------------------------------------------------|
E|------------------------------------------------------------------------------|

e|----------------------------------------------------|
B|-17-12-17-12--16-12-16-12--14-12-14-12--12h17~------|
G|----------------------------------------------------|
D|----------------------------------------------------|
A|----------------------------------------------------|
E|----------------------------------------------------|



 - Verse 2:

E                              A     E
The night has come and we no longer see
                                    A      B
Better days around the corner, for you and me
A              B      C#m           B
Receive the horizon dawn’s golden glow
E          G#        A              E
Honor is among us, honor is all we know



 - Intro:

e|------------------------------------------------------------|
B|------------------------------------------------------------|
G|-------6-7-6----------------------6-7-6---------------------|
D|---6-9-------9-6-7-6----------6-9-------9-6-7-6-7-8-9-------|
A|-7-------------------9-7~---7-------------------------------|
E|------------------------------------------------------------|

e|-------------------------------------------------------------------|
B|-------------------------------------------------------------------|
G|-------------------------------------------------------------------|
D|----------------------------------------6-7-9----------------------|
A|---4-5-6----6-7-9----7-8-9----6-7-9---7----------2-4-6----4-6-7~---|
E|-0--------0--------9--------0------------------4--------0----------|



 - Verse 3:

E                               A     E
It takes courage to make it in this land
                               A    B
So don’t forget, but forgive every man
A                  B             C#m     B                             
And prosperity’s river it will forever flow
E          G#        A              E
Honor is among us, honor is all we know



 - Intro:

e|-------------4-------------4-------------4-5-5-5-5-5-4---------4---------4---------4---------4---------|
B|-5-5-5-5-5-7---5-5-5-5-5-7---5-5-5-5-5-7---------------7-7-7-7---5-5-5-5---7-7-7-7---5-5-5-5---7-7-7-7-|
G|-------------------------------------------------------------------------------------------------------|
D|-------------------------------------------------------------------------------------------------------|
A|-------------------------------------------------------------------------------------------------------|
E|-------------------------------------------------------------------------------------------------------|

e|----------------------------------|
B|-5---5---4---4---2---2---2h5------|
G|---4---4---4---4---4---4----------|
D|----------------------------------|
A|----------------------------------|
E|----------------------------------|

__________
Hope you liked!

Tabbed by: Fabio BlenderBR    

Added On July 17th, 2015

SHARE

Comments

blog comments powered by Disqus

ADVERTISEMENT