Rancid Tabs

Journey To The End Of The East Bay

8 versions

TAB

            Journey To The End Of The East Bay Tab by Rancid


::::::::::::::::::::::::::::::::Rancid:::::::::::::::::::::::::::::::::::::
::::::::::::::::::Journey To The End Of The East Bay Tab:::::::::::::::::::


Intro:
E|-----------------------------------------------------------------------|
B|-----------------------------------------------------------------------|
G|-5--------12---------14---------10---------5--------12---------10------|
D|-5--------12---------14---------10---------5--------12---------10------|
A|-3-(8x)---10-(8x)----12-(8x)----8-(8x)-----3(8x)----10-(8x)----8-(16x)-|
E|-----------------------------------------------------------------------|


Verse:
E|------------------------------------------------------------------|
B|------------------------------------------------------------------|
G|-5-x-x-5-x-x-x-5--------------------------------------------------|
D|-5-x-x-5-x-x-x-5--5-x-x-5-x-x-x-5--7-x-7-x-x-x-7--3-x-3-x-x-x-3---|
A|-3-3-3-3-3-3-3-3--5-x-x-5-x-x-x-5--7-x-7-x-x-x-7--3-x-3-x-x-x-3---|
E|------------------3-3-3-3-3-3-3-3--5-5-5-5-5-5-5--1-1-1-1-1-1-1---|


Chorus:
E|--------------------------------------|
B|--------------------------------------|
G|-5------------------------------------|
D|-5--------5---------7--------3--------|
A|-3-(4x)---5---------7--------3--------|
E|----------3-(4x)----5-(4x)---1-(4x)---|


Outro: 
E|-------------------------------------|
B|-------------------------------------|
G|-5-----------------------------------|
D|-5-------5---------7--------3--------|
A|-3-(8x)--5---------7--------3--------|
E|---------3-(8x)----5-(8x)---1-(8x)---|


On The Last Time, Play:
E|--------------------------------------------------|
B|--------------------------------------------------|
G|-5--------------------------------------------5---|
D|-5--------5--------7--------3--------3--------5---|
A|-3-(8x)---5--------7--------3--------3--------3---|
E|----------3-(8x)---5-(8x)---1--------1------------|


Intro/break
Verse
Chorus
Verse
Chorus
Intro/break
Verse
Chorus
Outro    

Added On December 5th, 2013

SHARE

Comments

blog comments powered by Disqus