Rancid Tabs

Old Friend

2 versions

TAB

            Im a HUGE fan of RANCID. I got the Give 'em the Boot DVD and this is my favorite song on 
Also, no offense, i dont think the first version was right.

Intro/Gap:
e|-----------------|------------------------|
B|-----------------|------------------------|
G|-----------------|-11-9--11-9--11-9--11-9-|
D|-9--9--9-9-7-----|------------------------| x2
A|-------------9---|------------------------|
E|-----------------|------------------------|
         x3                   x1

Chorus/Verse: Verse= 2x faster
"Good Morning Heart ache..."
"Look up, You're in Cleveland again..."
"Testify my love for you..."
e|-----------------|-----------------|-----------------|-----------------|
B|-----------------|-----------------|-----------------|-----------------|
G|-----------------|-----------------|-----------------|-2-2-2-2-2-2-2-2-|
D|-2-2-2-2-2-2-2-2-|-----------------|-----------------|-0-0-0-0-0-0-0-0-|
A|-0-0-0-0-0-0-0-0-|-2-2-2-2-2-2-2-2-|-4-4-4-4-4-4-4-4-|-----------------|
E|-----------------|-0-0-0-0-0-0-0-0-|-2-2-2-2-2-2-2-2-|-----------------|
PM........................................................................

First solo:
e|-----0---0---0---0---8-8-8-8-8-5--5-8-8-8-8-8-5--5-8-7-6p5-|
B|-3/5-5-5-5-5-5-5-5-5-8-8-8-8-8-5--5-8-8-8-8-8-5--5-8-7-6p5-|
G|-----------------------------------------------------------|
D|-----------------------------------------------------------|
A|-----------------------------------------------------------|
E|-----------------------------------------------------------|

e|-5-8-5-8-5-7-5-6p5--5-8-5-8-5-8-5-7-5-----------------|
B|-5-8-5-8-5-7-5-6p5--5-8-5-8-5-8-5-7-5-----------------|
G|--------------------------------------3h5-3h5-5p3-----|
D|--------------------------------------------------5p2-|
A|------------------------------------------------------|
E|------------------------------------------------------|

End solo:
e|-0-0-0-0-0-0-0-0-|-----0------0--|-8--8-8-8-8-8-8-|-5--5-8-8-8-8-8-|
B|-5-5-5-5-5-5-5-5-|-----5------5--|-8--8-8-8-8-8-8-|-5--5-8-8-8-8-8-|
G|-----------------|-6h7----6h7----|----------------|----------------|
D|-----------------|---------------|----------------|----------------|
A|-----------------|---------------|----------------|----------------|
E|-----------------|---------------|----------------|----------------|
        x2                x1               x1               x2

End Chords: Each chord lasts 2 counts, but last chord is hit for 1 count
e|---------------|
B|---------------|
G|----------2----|
D|-2--------0--2-|
A|-0--2--4-----0-|
E|----0--2-------|

The solos aren't 100% but i know the rest is. hope it helps
-Sir Rocksalot    

Added On December 16th, 2013

SHARE

Comments

blog comments powered by Disqus

VERSIONS

ADVERTISEMENT