Reel Big Fish Tabs

Give It To Me

1 versions

TAB

            Band:Reel Big Fish
Song:Give It To Me
Album:Cheer Up!
Tabbed by:Duncan S

This song is on the back end of Rock It With I (if you're in the UK), or Drunk Again (if 
in the US). Cool song. Very easy.

Tuning is standard.

Tab Legend:
x - mute string
. (underneath a note or chord) - palm mute

Intro:
E|-3-3-x-3-x-3-x-3-x-3-x-3-x-5-x-5-|
B|-3-3-x-3-x-3-x-3-x-5-x-5-x-7-x-7-|
G|-4-4-x-4-x-4-x-4-x-5-x-5-x-7-x-7-|
D|-5-5-x-5-x-5-x-5-x-5-x-5-x-7-x-7-|
A|---------------------------------|
E|---------------------------------|

E|----------------------------|
B|----------------------------|
G|----------4-4--5-5-5-5--7-7-|
D|-5-5-5-5--4-4--5-5-5-5--7-7-|x3
A|-5-5-5-5--2-2--3-3-3-3--5-5-|
E|-3-3-3-3--------------------|

Verse:
E|-3-3-x-3-x-3-x-3-x-3-x-3-x-5-x-5-|
B|-3-3-x-3-x-3-x-3-x-5-x-5-x-7-x-7-|
G|-4-4-x-4-x-4-x-4-x-5-x-5-x-7-x-7-|
D|-5-5-x-5-x-5-x-5-x-5-x-5-x-7-x-7-|x8
A|---------------------------------|
E|---------------------------------|

Pre-Chorus:
E|-------------------------|
B|-------------------------|
G|-7---------7-5---------5-|
D|-7-7-7-7-7-7-5-5-5-5-5-5-|x4
A|-5-5-5-5-5-5-3-3-3-3-3-3-|
E|-------------------------|
     . . . .     . . . .

Verse again but only repeat 4 times and do string mutes on the last repeat just before 
chorus, then a Pre-Chorus, then 2 bars of nothing, then:

E|----------------------------|
B|----------------------------|
G|----------4-4--5-5-5-5--7-7-|
D|-5-5-5-5--4-4--5-5-5-5--7-7-|x4 (end with a pick slide into the bridge)
A|-5-5-5-5--2-2--3-3-3-3--5-5-|
E|-3-3-3-3--------------------|

Bridge:
note:This part may be octaves but it sounds OK as it is.
E|----------------|---------------------------------------------|
B|----------------|---------------------------------------------|
G|----------------|---------------------------------------------|
D|----------------|---------------------------------------------|
A|--------3--3-6--|--------3--3-5-5-5-5-5-5-5-5-5-5-5-5-5-5-5-5-|
E|-3--1--3--------|-3--1--3-------------------------------------|
                                  . . . . . . . . . . . .

Final Verse/Chorus:
E|-3-3-x-3-x-3-x-3-x-3-x-3-x-5-x-5-|
B|-3-3-x-3-x-3-x-3-x-5-x-5-x-7-x-7-|
G|-4-4-x-4-x-4-x-4-x-5-x-5-x-7-x-7-|
D|-5-5-x-5-x-5-x-5-x-5-x-5-x-7-x-7-|x4
A|---------------------------------|
E|---------------------------------|

E|----------------------------|
B|----------------------------|
G|----------4-4--5-5-5-5--7-7-|
D|-5-5-5-5--4-4--5-5-5-5--7-7-|x8
A|-5-5-5-5--2-2--3-3-3-3--5-5-|
E|-3-3-3-3--------------------|

E|----|
B|----|
G|----|
D|-5--|
A|-5--|
E|-3--|

The End.
Have fun!    

Added On December 16th, 2013

SHARE

Comments

blog comments powered by Disqus

ADVERTISEMENT